MISSÃO IMPOSSÍVEL


Missão Impossível - Tablatura e Código - Aula de Violão

Aprenda a tocar no violão a música Missão impossível em uma versão para iniciante, para dois violões, um fazendo o baixo e o outro fazendo a melodia. Este é um toque muito bom para quem está aprendendo a tocar, no início do violão.

TABLATURA

Baixo

]------------------------------------------------------------------[

]------------------------------------------------------------------[

]-------------------------------------------------------------------[

]-------------------------------------------------------------------[

]---------------------1-----3------------------------------------[

]------3-----3----------------------3-----3-----0-----1-----[ (4x)

]--------------------------------------------------------------------------------[

]--------------------------------------------------------------------------------[

]--------------------------------------------------------------------------------[

]--------------------------------------------------------------------------------[

]---------------------------1----3--------------------------------------------[

]--3----3----3----3----------------3----3-----3-----3-----0-----1--[ (1x) depois começa o solo com

esse riff no fundo

Solo

]--6----3---------------6----3-----------------6-----3---------------------------[

]-------------3----------------------2------------------------1------------------1--[

]------------------------------------------------------------------------------3--------[

]----------------------------------------------------------------------------------------[

]----------------------------------------------------------------------------------------[

]----------------------------------------------------------------------------------------[

]-------------2-------------------1-------------------0-----------------------[

]----------------------------------------------------------------------4----3---[

]--3----0-------------3----0------------3-----0---------------------------[

]----------------------------------------------------------------------------------[

]----------------------------------------------------------------------------------[

]----------------------------------------------------------------------------------[

]-11----8---------------11----8---------------11----8--------------------------[

]---------------8------------------------7-----------------------6-----------------6--[

]---------------------------------------------------------------------------------8-------[

]------------------------------------------------------------------------------------------[

]------------------------------------------------------------------------------------------[

]-------------------------------------------------------------------------------------------[

]-------------2-------------------1-----------------------0---------------------[

]---------------------------------------------------------------------------4--3--[

]--3----0--------------3----0---------------3-----0-------------------------[

]------------------------------------------------------------------------------------[

]------------------------------------------------------------------------------------[

]------------------------------------------------------------------------------------[

_______________________________

NOTAÇÃO EM CÓDIGO

Imprimir

Como entender o código

(63,51,53...)

Baixo

63 63 51 53

63 63 61 62 (4X)

63 63 63 63 51 53

63 63 63 63 61 62 (1X) Depois começa o solo com esse riff no fundo

Solo

16 13 23

16 13 22

16 13 21

33 21

33 30 12

33 30 11

33 30 10

24 23

111 18 28

111 18 27

111 18 26

38 26

33 30 12

33 30 11

33 30 10

24 23

APRENDA A TOCAR VIOLÃO

Redes Sociais

  • Wix Facebook page
  • YouTube Social  Icon