ESCALA DÓ MAIOR

ESCALA DE DÓ MAIOR NO VIOLÃO - AULA DE VIOLÃO

CÓDIGO (entenda o código)

1ª oitava

DÓ RÉ MI FÁ SOL LÁ SI DÓ

53 40 42 43 30 32 20 21

2ª oitava

DÓ RÉ MI FÁ SOL LÁ SI DÓ

21 23 10 11 13 15 17 18

________________________________________

TABLATURA

--------------------------------

------------------------0--1---

-----------------0--2----------

------0--2--3-----------------

--3----------------------------

-------------------------------

---------0--1--3--5--7--8-----

--1--3--------------------------

---------------------------------

--------------------------------

--------------------------------

---------------------------------

Redes Sociais

  • Wix Facebook page
  • YouTube Social  Icon