WHAT I´VE DONE - Link Park - Aula de violão


What i´ve done - Link Park - CIFRA

Aula de violão que mostra como tocar What i´ve done, da banda Linkin Park. Cifras - Tablatura e código das notas, Riffs e Acordes.

Riff do início e verso

]---------10-----------10------11------10--------------10----[

]--8-------------8-------------------------------------8---------------[

]--------------------------------------------------------------------------[

]--------------------------------------------------------------------------[

]--------------------------------------------------------------------------[

]--------------------------------------------------------------------------[

G5

In this farewell

Bb5

There's no blood

F5

There's no alibi

C5 G5

__'Cause I've drawn regret

Bb5

From the truth

F5

Of a thousand lies

C5 Bb5

__So let mercy come

F5

And wash away

[refrão]

]---------------------------------------------------------------------------[

]---------------------------------------------------------------------------[

]---3--3--3--3--3--3--2--2--3--3--3--3--3--3--5--5----[

]---------------------------------------------------------------------------[

]---------------------------------------------------------------------------[

]---------------------------------------------------------------------------[

]--------------------------------------------------------------------------[

]--------------------------------------------------------------------------[

]---2--2--2--2--2--2--2--2--0--0--0--0--0--0--2--2---[

]--------------------------------------------------------------------------[

]--------------------------------------------------------------------------[

]--------------------------------------------------------------------------[

G5

What I've done

Bb5

I'll face myself

F5

__To cross out

C5 G5

What I've become

Bb5

Erase myself

F5

__And let go of

C5 G5

What I've done

Bb5

Put to rest

F5

What you thought of me

C5 G5

__While I clean this slate

Bb5

With the hands

F5

Of uncertainty

C5 Bb5

__So let mercy come

F5

And wash away

(Refrão)

G5

What I've done

Bb5

I'll face myself

F5

__To cross out

C5 G5

What I've become

Bb5

Erase myself

F5

__And let go of

G5 A5 Bb5 C5 (começa o solinho)

What I've done

Solinho

]--------------------------------------------3----6----[

]---------6--3--6--3--6--3--6--3---------------[

]---------------------------------------------------------[

]---------------------------------------------------------[

]---------------------------------------------------------[

]---------------------------------------------------------[

]---------------------------------------------3--5--3---------[

]---3--6--3--6--3--6--3--6--3--------------------6--[

]-----------------------------------------------------------------[

]-----------------------------------------------------------------[

]-----------------------------------------------------------------[

]-----------------------------------------------------------------[

G5 A5 Bb5 C5 G5

For what I've done

Bb5

I'll start again

F5 C5 G5

__And whatever thing may come

Bb5

Today this ends

F5 C5 G5

__I'm forgiving what i´ve done

Bb5

I'll face myself

F5

__To cross out

C5 G5

What I've become

Bb5

Erase myself

F5

__And let go of

C5 G5 Bb5

What I've done

( Na na na na)

F5

Na na na

C5

Na na na na na

Redes Sociais

  • Wix Facebook page
  • YouTube Social  Icon