CLEANIN´OUT MY CLOSET - Eminem

 

 

Cleanin´out my closet - Eminem - Tablatura

 

 

 

Guitarra 1

 

1E]------------------------------------------------------[

2B]------------------------------------------------------[

3G]----------------------------2-----------------------[

4D]----------------------2----------2-----------------[

5A]-----0---0---3----------------------3--2-------[

6E]------------------------------------------------------[

 

 

]----------------------------------------------------------------------------------------[

]----------------------------------------------------------------------------------------[

]----------------------------------------------------------1----2----4----1----2--[

]--------------------------3------------------------------------------------------------[

]-------------0----3----------3-----0-----------------------------------------------[

]-1---1---------------------------------------4--------------------------------------[

 

 

 

Guitarra 2

 

 

 

1E]----------------8------------------------------8-------------7-------[

2B]---------10----------------10---------------------------------------[

3G]-----9--------------9-----------------9--------------9--------------[

4D]--------------------------------------------------------------------------[

5A]--------------------------------------------------------------------------[

6E]--------------------------------------------------------------------------[

 

 

1E]---------------8-------------------------10----------[

2B]---------10--------------10------------------------[

3G]-----9---------------9-----------9-------------------[

4D]---------------------------------------------------------[

5A]---------------------------------------------------------[

6E]---------------------------------------------------------[

 

 

]--8----10----12-------------------------7-------------------------------12------17--[

]-----------------------10------------------9--------------------------------------------------[

]---------------------------------9------------------------------10----------------------------[

]---------------------------------9--------------------------------9----------------------------[

]--------------------------------------------------------------------------------------------------[

]--------------------------------------------------------------------------------------------------[

 

 

 

 

 

 

 

Please reload

Please reload

Redes Sociais

  • Wix Facebook page
  • YouTube Social  Icon