Hino do Palmeiras - Como tocar no Violão - Solo e base

 

 

 

Melodia (solo) do hino do Palmeiras no violão.  Aprenda como tocar o hino do Palmeiras, o solo e a harmonia (acordes) do hino. 

 

                        

                               Bb                    C                 F

1E ] --------------------------------------------------------------------------------------------[

2B ] -----------------------------------------------5---------5-------6----------------------[

3G ] ----------5-------5---7---------7-----------------------------------------------------[

4D ] --------------------------------------------------------------------------------------------[

5A ] --------------------------------------------------------------------------------------------[

6E ] --------------------------------------------------------------------------------------------[

 

 

 

                     F

1E ] ------------------------------------------------------------------------------------5--------5-------[

2B ] ----------------------------------------------5------6-----------8-------6------------------------[

3G ] ---------------------------5-------7-----------------------------------------------------------------[

4D ] ----------7------8-----------------------------------------------------------------------------------[

5A ] -------------------------------------------------------------------------------------------------------[

6E ] -------------------------------------------------------------------------------------------------------[

 

 

 

                                   Dm                 D7                Gm

1E ] ------------------------------------------------------------------------------------------------[

2B ] -------------8-----6----8-----  6-----5---------------------------5---------------------[

3G ] --------------------------------------------------7----------5--------------7--------7-----[

4D ] ------------------------------------------------------------------------------------------------[

5A ] ------------------------------------------------------------------------------------------------[

6E ] ------------------------------------------------------------------------------------------------[

 

 

 

                                                             D7                       Gm

 

1E ] -------------------------------------------------------------------------5-------8---------6----[

2B ] ------------------------------------5--------7----7---------8----------------------------------[

3G ] -----5-------7-----7----------------------------------------------------------------------------[

4D ] ----------------------------------------------------------------------------------------------------[

5A ] ----------------------------------------------------------------------------------------------------[

6E ] ----------------------------------------------------------------------------------------------------[

 

 

 

                                                            C7                           F

 

1E ] ----------6-------5----8---------6---------------------------------------------5----------5-----[

2B ] -----------------------------------------------8----5-------------------------------------------------[

3G ] -----------------------------------------------------------------7-------5----------------------------[

4D ] ---------------------------------------------------------------------------------------------------------[

5A ] ---------------------------------------------------------------------------------------------------------[

6E ] ---------------------------------------------------------------------------------------------------------[

 

 

               F

 

1E ] ---8---------8-----8-------------6--------5----------------------------------5---------------------------[

2B ] ----------------------------------------------------------8------------6--------------------8-----------8---[

3G ] -----------------------------------------------------------------------------------------------------------------[

4D ] -----------------------------------------------------------------------------------------------------------------[

5A ] -----------------------------------------------------------------------------------------------------------------[

6E ] -----------------------------------------------------------------------------------------------------------------[      

 

 

 

             Gm

 

1E ] ---8---------8-----8-------------6--------5----------------------------------5---------------------------[

2B ] ----------------------------------------------------------8------------6--------------------8-----------8---[

3G ] -----------------------------------------------------------------------------------------------------------------[

4D ] -----------------------------------------------------------------------------------------------------------------[

5A ] -----------------------------------------------------------------------------------------------------------------[

6E ] -----------------------------------------------------------------------------------------------------------------[      

 

 

                           Bb                           Gm                      Dm

                

1E ] ---------------------------------------------------------------------------------5----------------5----[

2B ] ---------------5----6-----------5---------6---8---------6-------8----------------8------------[

3G ] -----7--------------------------------------------------------------------------------------------------[

4D ] ---------------------------------------------------------------------------------------------------------[

5A ] ----------------------------------------------------------------------------------------------------------[

6E ] ----------------------------------------------------------------------------------------------------------[

 

 

              D7                            Gm          C7              F

 

1E ] --------6-----------8-------9------10-----0-----5---------------------------------[

2B ] ------------------------------------------------------------------8------6---------------[

3G ] --------------------------------------------------------------------------------------------[

4D ] --------------------------------------------------------------------------------------------[

5A ] --------------------------------------------------------------------------------------------[

6E ] --------------------------------------------------------------------------------------------[

 

 

Faz duas vezes o trecho abaixo

 

                          Bb                                                   F

 

1E ] --------------------6----------6-----------------------------------------------------------------------[

2B ] ---------6-----------------------------------------6--------------------6-----------6---------------[

3G ] -----------------------------------------------------------7--------------------------------------------[

4D ] ------------------------------------------------------------------8-------------------------------------[

5A ] ----------------------------------------------------------------------------------------------------------[

6E ] ----------------------------------------------------------------------------------------------------------[

 

 

 

                  Bb                                                           F

 

1E ] ----------6----------6--------6-----6---------------------------------------------------------------[

2B ] ---------------------------------------------------6--------------------6-----------6----------------[

3G ] -----------------------------------------------------------7--------------------------------------------[

4D ] ------------------------------------------------------------------8-------------------------------------[

5A ] ----------------------------------------------------------------------------------------------------------[

6E ] ----------------------------------------------------------------------------------------------------------[

 

 

                               Bb                        Eb                     F

 

1E ] -----------------------10--------8------10---11--------10--------10--------8-------------[

2B ] -----------6--------------------------------------------------------------------------------------------[

3G ] ---------------------------------------------------------------------------------------------------------[

4D ] ---------------------------------------------------------------------------------------------------------[

5A ] ----------------------------------------------------------------------------------------------------------[

6E ] ----------------------------------------------------------------------------------------------------------[           FIm do trecho - Repete

 

 

Seguindo...

 

                        Gm                                                       Bb

 

1E ] --------------------------------------------5---6---------------------------------------------------[

2B ] -------6--------8----------8------------------------------8-------------6-----------------------[

3G ] -------------------------------------------------------------------------------------------------------[

4D ] -------------------------------------------------------------------------------------------------------[

5A ] -------------------------------------------------------------------------------------------------------[

6E ] -------------------------------------------------------------------------------------------------------[

 

 

                                 C                                                           Bb

 

1E ] --------------------------8----------8--------------8-------6--------6---------10---------10------[

2B ] -----6-------6----------------------------------------------------------------------------------------------[

3G ] ---------------------------------------------------------------------------------------------------------------[

4D ] ---------------------------------------------------------------------------------------------------------------[

5A ] ---------------------------------------------------------------------------------------------------------------[

6E ] ---------------------------------------------------------------------------------------------------------------[

 

 

 

                                     C                        F                         Bb

 

1E ] --------------------------------------------------------5----------5------------6---------6--------------[

2B ] --------------6-------6---8----------8-------------------------------------------------------------------[

3G ] ---------------------------------------------------------------------------------------------------------------[

4D ] ---------------------------------------------------------------------------------------------------------------[

5A ] ---------------------------------------------------------------------------------------------------------------[

6E ] ---------------------------------------------------------------------------------------------------------------[

 

 

 

Veja agora a letra com cifra do Hino do Palmeiras no violão

 

               F
Quando surge o alviverde imponente
           Dm                    D7        Gm
No gramado em que a luta o aguarda
                            D7           Gm
Sabe bem o que vem pela frente
                            C7             F
Que a dureza do prélio não tarda!

 

 

             F
E o Palmeiras no ardor da partida
              Gm
Transformando a lealdade em padrão
           Bb          Gm            Dm  
Sabe sempre levar de vencida
            D7              Gm       C7        F
E mostrar que, de fato, é campeão!

 

 

    Bb                              F
Defesa que ninguém passa
Bb                             F
Linha atacante de raça
    Bb              Eb          F
Torcida que canta e vibra

 

 

      Gm                         Bb
Por nosso alviverde inteiro
         C                     Bb
Que sabe ser brasileiro
            C            F   Bb
Ostentando a sua fibra!

 

 

 

 

 

 

 

 

 

 

 

 

 

 

 

 

 

 

 

 

 

 

 

 

 

 

 

 

 

 

 

 

 

 

 

 

 

 

 

 

 

Você pode aprender a dominar o solo no violão, saiba como aqui

Please reload

Redes Sociais

  • Wix Facebook page
  • YouTube Social  Icon