Me desculpa, Jay Z


Cifra - Me desculpa, Jay Z - Baco Exu do Blues

Aprenda a tocar a música Me desculpa, Jay Z do Baco Exu do Blues para violão. Arranjo do Karaokê Sua Voz e Violão.

O música alterna essas duas sequências de acordes abaixo. Na verdade, é uma mesma sequencia com variação de algumas vozes (notas) dentro dos mesmos acordes:

1 - Dm7/9 G#°13b Am7/9 Am6

2 - Dm7 G#° Am7 Am6

O desenho dos acordes está no fim desta postagem.


Abaixo, veja em tablatura como fica o dedilhado. Há três dedilhados diferentes que você pode usar, o dedilhado 1 é específico da introdução, o dedilhado 2 já faz uma levada para a música e o dedilhado 3 é uma variação da levada com mais informações.

Introdução - Dedilhado 1 - TAB

Dm7/9 G#°13b Am7/9 Am6

------------------------------------------------------------------------------------

-------------5--------------------5-----------------0-----------------5-------

-------------5-------------------4------------------5-----------------5-------

--------3-------------------3------------------5----------------4-------------

---5-------------------------------------------------------------------------------

------------------------4-------------------5----------------5------------------

Dm7 G#° Am7 Am6

------------------------------------------------------------------------------

-------------6-------------------3-------------5---------------5---------

-------------5-------------------4-------------5---------------5---------

--------3-------------------3------------------5---------------4---------

---5-------------------------------------------------------------------------

------------------------4-----------------------5---------------5---------

Dedilhado 2

Dm7/9

--------------------------------------------------------------------

-------------5-----------x-----------5--------------------------

-------------5-----------x-----------5--------------------------

--------3----------------x-----------3--------------------------

---5---------------------x---------------------------------------

-------------------------------------------------------------------

G#°13b

--------------------------------------------------------------------

-------------5-----------x-----------5--------------------------

-------------4-----------x-----------4--------------------------

--------3----------------x-----------3--------------------------

--------------------------x----------------------------------------

---4---------------------------------------------------------------

Am7/9

--------------------------------------------------------------------

-------------0-----------x-----------0--------------------------

-------------5-----------x-----------5--------------------------

--------5----------------x-----------5--------------------------

--------------------------x----------------------------------------

---5---------------------------------------------------------------

Am6

--------------------------------------------------------------------

-------------5-----------x-----------5--------------------------

-------------5-----------x-----------5--------------------------

--------4----------------x-----------4--------------------------

--------------------------x----------------------------------------

---5--------------------------------------------------------------

Dm7

--------------------------------------------------------------------

-------------6-----------x-----------6--------------------------

-------------5-----------x-----------5---------------------------

--------3----------------x-----------3---------------------------

---5---------------------x-----------------------------------------

---------------------------------------------------------------------

G#°

--------------------------------------------------------------------

-------------3-----------x-----------3--------------------------

-------------4-----------x-----------4---------------------------

--------3----------------x-----------3--------------------------

--------------------------x----------------------------------------

---4---------------------------------------------------------------

Am7

--------------------------------------------------------------------

-------------5-----------x-----------5--------------------------

-------------5-----------x-----------5---------------------------

--------5----------------x-----------5---------------------------

--------------------------x-----------------------------------------

---5----------------------------------------------------------------

Am6

--------------------------------------------------------------------

-------------5-----------x-----------5--------------------------

-------------5-----------x-----------5---------------------------

--------4----------------x-----------4---------------------------

--------------------------x-----------------------------------------

---5----------------------------------------------------------------

Dedilhado 3

Dm7/9

--------------------------------------------------------------------

-------------5-----------x-----------5--------------------------

-------------5-----------x-----------5---------------5----------

--------3----------------x---------------------3----------3-----

---5---------------------x-----------------------------------------

---------------------------------------------------------------------

G#°13b

--------------------------------------------------------------------

-------------5-----------x-----------5--------------------------

-------------4-----------x-----------4---------------4----------

--------3----------------x---------------------3----------3-----

--------------------------x-----------------------------------------

---4----------------------------------------------------------------

Am7/9

--------------------------------------------------------------------

-------------0-----------x-----------0--------------------------

-------------5-----------x-----------5---------------5----------

--------5----------------x---------------------5----------5-----

--------------------------x-----------------------------------------

---5----------------------------------------------------------------

Am6

--------------------------------------------------------------------

-------------5-----------x-----------5--------------------------

-------------5-----------x-----------5---------------5----------

--------4----------------x---------------------4----------4-----

--------------------------x-----------------------------------------

---5----------------------------------------------------------------

Dm7

--------------------------------------------------------------------

-------------6-----------x-----------6--------------------------

-------------5-----------x-----------5---------------5----------

--------3----------------x---------------------3----------3-----

---5---------------------x-----------------------------------------

---------------------------------------------------------------------

G#°

--------------------------------------------------------------------

-------------3-----------x-----------3--------------------------

-------------4-----------x-----------4---------------4----------

--------3----------------x---------------------3----------3-----

--------------------------x-----------------------------------------

---4----------------------------------------------------------------

Am7

--------------------------------------------------------------------

-------------5-----------x-----------5--------------------------

-------------5-----------x-----------5---------------5----------

--------5----------------x---------------------5----------5-----

--------------------------x-----------------------------------------

---5----------------------------------------------------------------

Am6

--------------------------------------------------------------------

-------------5-----------x-----------5--------------------------

-------------5-----------x-----------5---------------5----------

--------4----------------x---------------------4----------4-----

--------------------------x-----------------------------------------

---5----------------------------------------------------------------

Cifra - M desculpa, Jay Z

Dm7/9 G#º13b Am7/9

Eu não gosto de você, não quero mais te ver

Am6

Por favor não me ligue mais

Dm7 G#º Am7

Eu amo tanto você, sorrio ao te ver

Am6

Não me esqueça jamais

Dm7/9 G#º13b Am7/9

Eu não gosto de você, sorrio ao te ver

Am6

Não quero não te ver jamais

Dm7 G#º Am7

Eu pareço com você, no espelho está você

Am6

Não me enlouqueça mais

Dm7/9 G#º13b

Não me ligue mas a vida ta meio difícil não sei o que fazer

Am7/9 Am6

Ta tudo confuso como meus sonhos eróticos com a Beyoncé

Dm7 G#º

Me desculpa Jay-Z, queria ser você

Am7

Minha vida tá chata, quero enriquecer

Só preciso de um cigarro

Am6 Dm7/9

Eu quero um trago, divórcio e caso até o amanhecer

G#º13b

Até o amanhecer

Am7/9

Tenho medo de me conhecer

Am6

Tenho medo de me conhecer

Dm7

Não quero me envolver

G#º

Não, não quero me envolver

Am7/9 Am6

E depois enjoar de você

Dm7/9 G#º 13b

To entre tirar sua roupa e tirar minha vida

Am7/9

Procuro um motivo pra sair da cama

Am6

e melhorar meu autoestima

Dm7 G#º

Quero Balenciaga e estampada na minha camisa

Am7

Faculdade ou seguir meu sonho

Am6

O que que eu faço da vida

Dm7/9

Amo você de verdade

G#º13b

Amo você de mentira

Am7/9

Amo andar na cidade

Am6

Linda eu não tenho saída

Dm7

Amo você de verdade

G#º

Amo você de mentira

Am7

Amo andar na cidade

Am6

Linda eu não tenho saída

Dm7(9)

Se eu minto para mim

G#º Am7

imagina pra você meu bem

Am6

Para mim meu bem

Dm7(9)

Se eu minto para mim

G#º Am7

imagina pra você meu bem

Am6

Pra mim também

Redes Sociais

  • Wix Facebook page
  • YouTube Social  Icon