Señorita


Señorita - Shawn Mendes, Camila Cabello

Riff - Chords

|---8------------8--7------------8---7---------7------|

|-------10---------------8--8------------10-----------|

|------------9--------------------------------------------|

|---------------------------------------------------------|

|---------------------------------------------------------|

|---------------------------------------------------------|

|---8------------8--7------------8---7--------------|

|-------10---------------8--8------------10---------|

|------------9-----------------------------------------|

|-------------------------------------------------------|

|-------------------------------------------------------|

|-------------------------------------------------------|

|-------------8---8----8----------------8---8---8---|

|---8---------------------------------------------------|

|-------10------------------10---10-----------------|

|-------------------------------------------------------|

|-------------------------------------------------------|

|-------------------------------------------------------|

|---7---8---7---8---7------7--8--7--8--7------------|

|--------------------------8--------------------10--10-|

|----------------------------------------------------------|

|----------------------------------------------------------|

|----------------------------------------------------------|

|----------------------------------------------------------|;

Acordes

Am C F7M Em G

Dedilhado

Faça o dedilhado duas vezes nos acordes Am, C e F7M e uma vez nos acordes Em e G

Redes Sociais

  • Wix Facebook page
  • YouTube Social  Icon