Começando a solar no violão

Para começar a solar é necessário começar na 1ª região do braço do violão, e para você praticar há  o solo da música Luar do Sertão. 

1ª região

No início deste curso, vamos trabalhar com a primeira região do braço do violão. Então é importante que você decore e pratique tocando as notas naturais localizadas nas tres primeiras casas e nas cordas soltas.

Notas naturais na primeira região do braço do violão

Mi  Fá  Sol Lá  Si  Dó  Ré  Mi Fá  Sol  Lá  Si  Dó Ré  Mi Fá  Sol

 

------------------------------------------------0--1--3-

--------------------------------------0--1--3-----------

-------------------------------0--2---------------------

---------------------0--2--3----------------------------

-----------0--2--3--------------------------------------

-0--1--3------------------------------------------------

Luar do Sertão

Agora é hora de praticar uma melodia usando a 1ª região do instrumento, pois não vamos ficar só decorando nota. Veja ai Luar do Sertão.

Luar do Sertão 

Parte A -  Refrão

              C                                         F                                        G                                    C                        

 

1E]---------------------0------------1--------0--------------------------------------------[ 

2B]-------1-------3-------------3-----------------3--------1---0--------------------------[

3G]---0------------------------------------------------------------------2---0-------------[

4D]-----------------------------------------------------------------------------------3--2--[

5A]------------------------------------------------------------------------------------------[

6E]------------------------------------------------------------------------------------------[

 

Parte A´ -  Refrão

               C                                        F                                         G                                     C

 

1E]---------------------0------------1--------0-----------------------------------------------[ 

2B]-------1-------3-------------3-----------------3--------1---0-------------------3----1---[

3G]---0------------------------------------------------------------------2---0----------------[

4D]--------------------------------------------------------------------------------------------[

5A]--------------------------------------------------------------------------------------------[

6E]---------------------------------------------------------------------------------------------[

 

 

 

Parte B  -  Verso

                                     C                          

                          

1E]------------------------------------------0-----0----0-----------------[ 

2B]---------------0----1----1----1----3---------------------3-----------[

3G]----0----2-------------------------------------------------------------[

4D]------------------------------------------------------------------------[

5A]------------------------------------------------------------------------[

6E]------------------------------------------------------------------------[

            F                                                                 G                                                                   C

 

1E]----1----1----1----0--------------------------------------------------------------------------------------[ 

2B]--------------------------3----3----3----1-----3----1----0------------0---------------------------------[

3G]------------------------------------------------------------------2----------2----0-----------------------[

4D]-----------------------------------------------------------------------------------------3----2------------[

5A]------------------------------------------------------------------------------------------------------------[

6E]------------------------------------------------------------------------------------------------------------[

 

 

Parte B´ -  Verso

 

                                    C                                                

1E]------------------------------------------0-----0----0-----------------[ 

2B]---------------0----1----1----1----3---------------------3-----------[

3G]----0----2-------------------------------------------------------------[

4D]------------------------------------------------------------------------[

5A]------------------------------------------------------------------------[

6E]------------------------------------------------------------------------[

           F                                                                  G                                                                   C

 

1E]----1----1----1----0------------------------------------------------------------------------------[ 

2B]--------------------------3----3----3----1-----3----1----0------------0---------------3----1---[

3G]------------------------------------------------------------------2----------2----0---------------[

4D]---------------------------------------------------------------------------------------------------[

5A]---------------------------------------------------------------------------------------------------[

6E]----------------------------------------------------------------------------------------------------[

Notas naturais de dó a dó na primeira região do braço do violão

Dó Ré  Mi Fá Sol Lá  Si Dó  Ré  Mi Fá  Sol

 

---------------------------------0--1--3--

-----------------------0--1--3------------

----------------0--2----------------------

------0--2--3-----------------------------

--3----------------------------------------

-------------------------------------------