PÁGINA INICIAL   > COMO LER TABLATURA

Como ler tablatura

A tablatura é uma notação musical muito utilizada para quem toca guitarra ou violão.

Com ela você poderá saber a localização dos dedos no braço do instrumento.

A tablatura é acessível a qualquer pessoa, diferentemente da partitura, na qual é necessário um estudo e treinamento mais demorado para se tocar. geralmente a tablatura não possui ritmo e não serve para ser lida por outros instrumentistas. Ela é ótima para o iniciante e é uma das mais usadas formas de notação musical entre guitarristas e baixistas.

 

Mas vamos  ver como se lê a tab!

 

Só é necessário você entender duas informações, vamos ver:

 

1- A tablatura é feita de seis linhas, cada linha representa uma corda do violão. então fica assim:

Você tem que decorar isso:

 

----------------------------------------------------   1ª corda

----------------------------------------------------   2ª corda

-----------------------------------------------------  3ª corda

----------------------------------------------------   4ª corda

-----------------------------------------------------  5ª corda

-----------------------------------------------------  6ª corda

 

OBS: Lembre-se que a primeira corda é a mais fina, a mais aguda, enquanto a sexta é a corda mais grossa e mais grave.

 

 

2 -  Na tablatura irão aparecer os números em cima de cada corda, esses números representam as casas que devem ser tocadas, de acordo com as cordas que esse número se encontra. veja o exemplo:

 

 

Apareceu o número 2 na primeira corda, isso significa que deve-se tocar a casa 2 na primeira corda

em código seria: 12

 

--------2------------------------------------------   1ª corda

----------------------------------------------------   2ª corda

-----------------------------------------------------  3ª corda

----------------------------------------------------   4ª corda

-----------------------------------------------------  5ª corda

-----------------------------------------------------  6ª corda

 

É só ler da esquerda para direita a sequencia das casas

 

Em código seria  12   13   15   13   10

 

--------2---3---5---3---0-------------------   1ª corda

----------------------------------------------------   2ª corda

-----------------------------------------------------  3ª corda

----------------------------------------------------   4ª corda

-----------------------------------------------------  5ª corda

-----------------------------------------------------  6ª corda

 

OBS: A casa 0 representa a corda solta.

 

No caso abaixo vemos que a sequencia seria:

 

1ª corda 2ª casa ;   2ª corda 3ª casa ;   1ª corda 5ª casa ;  2ª corda 3ª casa ;   1ª corda solta

 

Em código seria:  12   23   15   23   10

 

--------2------------5---------0----------------   1ª corda

---------------3-----------3---------------------   2ª corda

-----------------------------------------------------  3ª corda

----------------------------------------------------   4ª corda

-----------------------------------------------------  5ª corda

-----------------------------------------------------  6ª corda

 

 

Acordes

 

As notas devem ser tocadas na direção da esquerda para a direita, independente da corda, porém se elas estiverem dispostas na mesma vertical, devem ser tocadas juntas: 

 

No caso abaixo devemostocar ao mesmo tempo a casa 2 nas duas primeiras cordas, criando uma harmonia no som

 

--------2-----------------------------------------   1ª corda

--------2------------------------------------------   2ª corda

-----------------------------------------------------  3ª corda

----------------------------------------------------   4ª corda

-----------------------------------------------------  5ª corda

-----------------------------------------------------  6ª corda

 

Veja o riff Billie Jean de Michael Jacksoon na tablatura

 

--------2-------4-------5-------4-------------   1ª corda

--------2-------4-------5-------4-------------   2ª corda

-----------------------------------------------------  3ª corda

----------------------------------------------------   4ª corda

-----------------------------------------------------  5ª corda

-----------------------------------------------------  6ª corda

 

Quando vamos fazer um acorde, devemos colocar as casas tocadas também na mesma posição

Abaixo  sequencia de três acordes D  E  A

 

      D              E              A

 

--------2--------------0-------------0----------------   1ª corda

--------3--------------0-------------2----------------   2ª corda

--------2--------------1-------------2-----------------  3ª corda

--------0--------------2-------------2-----------------  4ª corda

-------------------------2------------0------------------  5ª corda

-------------------------0--------------------------------  6ª corda

 

 

Pra ver se você aprendeu, tente tocar agora a famosa  música  Dó ré mi fá

 

 

1E]--------------0---1---1---1-------------------------------------------[   

2B]--1----3----------------------------1----3----1----3----3---3---[

3G]---------------------------------------------------------------------------[  

4D]---------------------------------------------------------------------------[   

5A]---------------------------------------------------------------------------[ 

6E]---------------------------------------------------------------------------[  

 

 

 

1E]-------3----1---0----0---0---------------0----1----1---1----[

2B]--1----------------------------------1---3--------------------------[

3G]------------------------------------------------------------------------[  

4D]------------------------------------------------------------------------[   

5A]------------------------------------------------------------------------[  

6E]-------------------------------------------------------------------------[  

 

 

 

Tocando  Dó ré mi fá agora nas cordas graves

 

 

1E]---------------------------------------------------------------------------[   

2B]---------------------------------------------------------------------------[

3G]---------------------------------------------------------------------------[  

4D]-------0----2----3----3----3-----------0-------0----0----0----[   

5A]--3------------------------------------3--------3----------------------[ 

6E]---------------------------------------------------------------------------[  

 

 

 

1E]-----------------------------------------------------------------------[

2B]-----------------------------------------------------------------------[

3G]--------0-------------------------------------------------------------[  

4D]-------------3---2---2---2------------0---2---3---3---3---[   

5A]---3---------------------------------3------------------------------[  

6E]-----------------------------------------------------------------------[  

Redes Sociais

  • Wix Facebook page
  • YouTube Social  Icon