PÁGINA INICIAL   >  SOLOS   >  MARCHA NUPCIAL

Marcha Nupcial

TABLATURA

                        C

|-----------------------------------------------------------------------------------------|

|-----------------------------------------------------------------------------------------|

|-------5--5--5--5--------------5--5--5--5-------------------------------------|

|-----------------------------------------------------------------------------------------|

|-----------------------------------------------------------------------------------------|

|-----------------------------------------------------------------------------------------|

|-----------------------------------------------------------------------------------------------------|

|---------------5-----5--5--5--5--------5--5--5--8-------8--8--8--8----8--8--8--|

|-5--5--5-----------------------------------------------------------------------------------------|

|-----------------------------------------------------------------------------------------------------|

|-----------------------------------------------------------------------------------------------------|

|-----------------------------------------------------------------------------------------------------|

      A°    B7     Em              Dm      C         G7           C

|---8-------7---------5-------------------------------------------------------------------|

|------------------7-----------------8---6-------------------------------------5--------|

|------------------------------------------------7---5----------7--------7--------------|

|-----------------------------------------------------------------------5-------------------|

|--------------------------------------------------------------------------------------------|

|--------------------------------------------------------------------------------------------|

                                A°     B7       Em             Dm 

|----------------------------8----------7---------5-------------------------------------|

|------------------5--8---------------------7-----------8------6---------------------|

|--------------5-----------------------------------------------------------7--------------|

|----------5-------------------------------------------------------------------------------|

|------7-----------------------------------------------------------------------------------|

|--8---------------------------------------------------------------------------------------|

     C         G7                                   C

|-----------------------------------------------------------------------------------------|

|-----------------5-------------------5------------------------------------------------|

|----5-----------------------7------------7--------5---------------------------------|

|-----------------------------------------------------------------------------------------|

|-----------------------------------------------------------------------------------------|

|-----------------------------------------------------------------------------------------|

    C                    G7                         C

|------------------------------------------------------------------------------------------|

|------------------------5----------------------------------------------------5---------|

|--5--------5----5---------7-----4--------------------------5--5-----------------|

|----------------------------------------------5------5--------------------------------|

|-----------------------------------------------------------------------------------------|

|-----------------------------------------------------------------------------------------|

    G7                              C                                F

|----------------------------------------------------------------------------------------------|

|---5-----------------------------------------5---5-----------8--8-----------6---5---|

|----------7-----4--------------------------------------------------------------------------|

|--------------------------5-------5--------------------------------------------------------|

|----------------------------------------------------------------------------------------------|

|----------------------------------------------------------------------------------------------|

    Dm                   D7                         G7

|----------------------------------------------------------------------------5------7-------|

|-----------------------5------------------------------------------8------------------------|

|---7-----------6---------7--------------------5----4-----------------------------------|

|------------------------------------------7--------------------------------------------------|

|----------------------------------------------------------------------------------------------|

|----------------------------------------------------------------------------------------------|

CÓDIGO

 

35  35  35  35
35  35  35  35

35  35  35  25
25  25  25  25
25  25  25  28
28  28  28  28
28  28  28

18  17  
27  15  28  26  37 35
37  45  37  25

68  57  45  
35  25  28

18  17  
27  15  28  26  37  35
25  37  25  37  35

35  35  
35  25  37  34  45 

45  35  35  
25  25  37  34  45 

45  25  25  28  28
26  25  37  
36  25  37
47  35  34
28  15  17

Partitura do site superpartituras.com.br

Redes Sociais

  • Wix Facebook page
  • YouTube Social  Icon