ASA BRANCA - MELODIA

 

Melodia da música Asa Branca no violão - Aula de Violão

 

 

Veja como tocar a música Asa Branca, somente a melodia dela, o solinho,  no violão. Essa é uma lição muito boa para quem está começando a tocar violão, pro iniciante nível zero.

 

Aqui o aprendiz irá conseguir tocar a melodia de Asa branca, aprendendo também onde estão as notas musicais no violão: Dó ré mi fá sol.

 

Assista o vídeo e treine no seu violão essa música fácil para iniciante: Asa branca. Aqui você aprende como tocar violão.

 

IMPRIMIR

 

 

Como entender o código

(21,23,10...)

 

 

 

NOTAÇÃO EM CÓDIGO

 

 

DÓ  RÉ   MI   SOL  SOL  MI   FÁ   FÁ

21   23    10   13     13    10    11   11

 

DÓ   RÉ   MI    SOL   SOL   FÁ   MI

21    23   10      13     13      11   10

 

DÓ  DÓ  RÉ  MI  SOL

21    21   23  10   13

 

SOL  FÁ   MI   DÓ   FÁ

13     11   10    21    11

 

MI  MI  RÉ   RÉ   MI

10  10   23   23   10

 

RÉ  RÉ  DÓ  DÓ             

23  23   21   21                      (REPETE AS 4 ULTIMAS LINHAS)

 

 

Solinho do final

 

SIb  SOL  LÁ   FÁ   SOL   MI

16    13    15    11    13     10  

 

FÁ   RÉ   MI   DÓ   RÉ   DÓ 

11   23    10    21   23    21

 

LÁ   DÓ   DÓ

32    21    21

 

 

ESTÁ AQUI A FÓRMULA

PARA VOCÊ TOCAR VIOLÃO

 

 

 

 

TABLATURA

 

 

1E]-----------0--3--3--0--1--1----------------0---3---3---1---0--[

2B]-1--3-----------------------------------1--3----------------------------[

3G]------------------------------------------------------------------------------[

4D]------------------------------------------------------------------------------[

5A]------------------------------------------------------------------------------[

6E]------------------------------------------------------------------------------[

 

 

1E]---------------------0---3-------------3-----1-----0-----------1-----[

2B]---1---1---3------------------------------------------------1-----------[

3G]------------------------------------------------------------------------------[

4D]------------------------------------------------------------------------------[

5A]------------------------------------------------------------------------------[

6E]------------------------------------------------------------------------------[

 

 

1E]--------0----0----------------0----------------------------------[

2B]--------------------3-----3----------3------3-----1-----1----[

3G]---------------------------------------------------------------------[

4D]---------------------------------------------------------------------[

5A]---------------------------------------------------------------------[

6E]---------------------------------------------------------------------[

 

 

1E]-----------------------0-----3-------------3----1----0-----------1--[

2B]---1---1----3--------------------------------------------------1-------[

3G]----------------------------------------------------------------------------[

4D]----------------------------------------------------------------------------[

5A]----------------------------------------------------------------------------[

6E]----------------------------------------------------------------------------[

 

 

1E]------0-----0----------------0-------------------------------------[

2B]-------------------3-----3-----------3-----3-----1-----1-------[

3G]-----------------------------------------------------------------------[

4D]-----------------------------------------------------------------------[

5A]-----------------------------------------------------------------------[

6E]-----------------------------------------------------------------------[

 

 

 

 

 

 

 

Solinho do fim - Veja aqui o vídeo

 

 

1E]--6---3---5---1---3---0---1------0--------------------------------[

2B]---------------------------------------3------1---3---1-------1---1--[

3G]-----------------------------------------------------------------2----------[

4D]-----------------------------------------------------------------------------[

5A]-----------------------------------------------------------------------------[

6E]-----------------------------------------------------------------------------[

 

 

 

CÓDIGO

 

16    13    15    11    13    10    11    23    10    21    23    21    32    21    21

 

 

 

 

 

 

ESTÁ AQUI A FÓRMULA

PARA VOCÊ TOCAR VIOLÃO

 

 

 

 

 

 

Você também vai gostar de:

Asa Branca - Harmonia

Rock Balboa - Eye of the tiger

Toques Fáceis do Rock Nacional

Pantera cor de rosa

Atirei o pau no gato

 

 

 

 

Please reload

Redes Sociais

  • Wix Facebook page
  • YouTube Social  Icon