BOXE - Eye of the tiger

Música do Boxe - Rock Balboa - Eye of the tiger - Riff - Tablatura e código

Aprenda somente o toque fácil da música Eye of the tiger, tema do Filme Rock, para iniciante no violão. Este toque ou riff é muito útil para o iniciante no violão começar a tocar suas primeiras lições de violão, além desses há diversos toques fáceis neste site para você que está aprendendo violão.


Imprimir em PDF

CÓDIGO

65

65 63 65

65 63 65

65 63 61

__________________________________

TABLATURA

]---------------------------------------------------------------------------------------[

]---------------------------------------------------------------------------------------[

]---------------------------------------------------------------------------------------[

]---------------------------------------------------------------------------------------[

]---------------------------------------------------------------------------------------[

]-------5--------5----3----5-----------5----3----5---------5----3----1----[

Com acordes de 5ª (Power chords)

A5 A5 G5 A5 A5 G5 A5 A5 G5 F5

]--------------------------------------------------------------------[

]--------------------------------------------------------------------[

]--------------------------------------------------------------------[

]------7----7--5--7-------7--5--7-------7--5--3--------[

]------7----7--5--7-------7--5--7-------7--5--3--------[

]------5----5--3--5-------5--3--5-------5--3--1--------[

Quem viu isso, também viu:

Tocando músicas com uma corda

Missão Impossível


APRENDA A TOCAR VIOLÃO COM O MÉTODO MUITO FÁCIL E DIVERTIDO

Redes Sociais

  • Wix Facebook page
  • YouTube Social  Icon