BILLIE JEAN Michael Jackson

Billie Jean - Michael jackson - Tablatura

Esse é um dos primeiros toques do método de ensino, a fórmula do Curso Violão Iniciante, esse toque é usado na aula 2 do curso, tocando com duas cordas. Para você que é iniciante no violão, aprenda este toque simples e fácil, que te ajudará a iniciar no aprendizado do instrumento.

Utilize as duas cordas juntas, primeira e segunda cordas ao mesmo tempo, mudando as casas abaixo:

2 - 4 - 5 - 4

Tablatura Riff - Billie Jean

1E]-------2-------4-------5-------4-----------------[

2B]-------2-------4-------5-------4-----------------[

3G]-------------------------------------------------------[

4D]-------------------------------------------------------[

5A]-------------------------------------------------------[

6E]-------------------------------------------------------[

Tablatura Linha de Baixo - Billie Jean

1E]------------------------------------------------------------------------[

2B]------------------------------------------------------------------------[

3G]------------------------------------------------------------------------[

4D]---4-------------2-------4-------2--------------------------------[

5A]-----------4--------------------------------4--------2-------4----[

6E]------------------------------------------------------------------------[

APRENDA A TOCAR VIOLÃO AGORA COM O MÉTODO QUE FUNCIONA

Redes Sociais

  • Wix Facebook page
  • YouTube Social  Icon