ZOIO D´LULA

 

Zoio d´lula - Charlie Brown Jr - Tablatura, código e cifra

 

 

 

TABLATURA

 

 

LINHA DE BAIXO - VERSO

 

]----------------------------------------------------------------------------------------[

]----------------------------------------------------------------------------------------[

]----------------------------------------------------------------------------------------[

]------------------------------------------------------------------------------2--------[

]---------4---4-------2---4---2------------2----2-------2----4---------------[

]----------------------------------------4-----------------4---------------------------[

 

 

 

REFRÃO

 

]---------------------------------------------------------------------------------------------------------------------------------[

]---------------------------------------------------------------------------------------------------------------------------------[

]---------------------------------------------------------------------------------------------------------------------------------[

]------------------------------1--2--1-------------------------------------------------1--2--1----------------4---------[

]-------4--4--4-----4------------------2--2--------------2--4--4--4-----4--------------------2-------------------[

]--------------------------------------------------------4-----------------------------------------------------------------------[

 

___________________________________________________________

 

CÓDIGO

 

 

VERSO

 

54  54    

 

52  54  52  64

 

52  52

 

64  52  54  42

 

 

REFRÃO

 

54  54  54  

 

54   41  42  41  52  52

 

64  52  54  54  54  

 

54  41  42  41  52  44

 

_________________________________________________________--

 

 

CIFRA

 

ACORDES

 

C#m7       G#m7         B

 

--4--      ---4--      --2---

--5--      ---4--      --4---

--4--      ---4--      --4---

--6--      ---4--      --4---

--4--      ---6--      --2---

-----       ---4--       ------

 

           C#m7   

Tirou a roupa, entrou no mar

                 G#m

Pensei: Meu Deus Que bom que fosse

C#m7                         G#m7

Tu me apresenta essa mulher

                                   C#m7  

Meu irmão, te dava até um doce

               G#m7

Sem roupa ela é demais

               C#m7 

Também por isso

 

Eu creio em Deus

                    G#m7

Meu bom, Meu Deus

 

Meu bom, me traz

 

 

        C#m7  

Ainda bem que eu trouxe

           G#m7

Até meu guarda-sol

C#m7  

Tenho toda tarde

G#m7

Tenho a vida inteira

      C#m7

Já se foi aquele tempo

     G#m7

Da ladeira, irmão

            C#m7

Já que se foi aquele tempo

     G#m7

Da ladeira, irmão

 

 

           C#m7

Meu escririo é na praia

          B

Eu tô sempre na área

               C#m7                 B

Mas eu não sou Da tua láia, não!

           C#m

Meu escririo é na praia

           B

Eu tô sempre na área

               C#m7

Mas eu não sou

 

Daquela láia, não!

     B

Então

 

C#m7        G#m7

Deixe viver, deixe ficar

C#m7                 G#m7

Deixe estar como es

C#m7         G#m7

Deixe viver, deixe ficar

C#m7                  G#m7

Deixe estar como es

 

 

       C#m7

Meu Deus me dê um motivo

        G#m7

Pois eu pago tanto mico

C#m7

Ela me ignora

         G#m7

Na esperança eu ainda fico

   C#m7

Eu fritando aqui

           G#m7

Vou entregar, não aguento mais

        C#m7

Mas se eu não falar hoje

         G#m7

Talvez nunca a veja mais

 

 

C#m7

O dia passa

              G#m7

Horas se estendem

         C#m7

As pessoas ao redor

                 G#m7

Nunca me entendem

 

C#m7

O dia passa

              G#m7

Horas se estendem

         C#m7

As pessoas ao redor

                G#m7

Nunca me entendem

 

Então!

 

 

REFRÃO

 

 

TODAS AS MÚSICAS

 

Please reload

Redes Sociais

  • Wix Facebook page
  • YouTube Social  Icon