SMOKE ON THE WATER - Deep Purple


SMOKE ON THE WATER - Deep Purple - Riff Fácil no Violão Iniciante

CÓDIGO

63 51 53

63 51 54 53

63 51 53 51 63

TABLATURA

]---------------------------------------------------------------------------------------[

]---------------------------------------------------------------------------------------[

]---------------------------------------------------------------------------------------[

]---------------------------------------------------------------------------------------[

]-------1----3-------------1----4----3----------------1--3-----------1-------[

]-3---------------------3---------------------------3---------------------------3-[

]----------------------------------------------------------------------------------------[

]----------------------------------------------------------------------------------------[

]--0----3----5----------0----3----6----5---------0----3----5----3----0--[

]--0----3----5----------0----3----6----5---------0----3----5----3----0--[

]----------------------------------------------------------------------------------------[

]----------------------------------------------------------------------------------------[

]----------------------------------------------------------------------------------------------[

]----------------------------------------------------------------------------------------------[

]--------3----5-----------------3-- --6-----5---------------3----5--------3---------[

]--5----3----5---------5-----3-----6-----5---------5----3----5--------3-----5--[

]--5----1----3---------5-----1-----4-----3---------5----1----3--------1-----5--[

]--3----------------------3-------------------------------3----------------------------3--[

Redes Sociais

  • Wix Facebook page
  • YouTube Social  Icon