BEAT IT Michael Jackson

 

 

 

 

Beat it - Michael Jackson - Riff - Código e tablatura - Violão Iniciantes

 

Aprenda a tocar um toque fácil no violão, ótimo para iniciante no violão, é o Riff da música Beat it, de Michael Jackson, no violão.  

 

CÓDIGO (entenda o código)

 

 

60  63  52  45  42

 

44  42  40  40  

 

 

60  63  52  45  42

 

44  42  40  40  

 

__________________________________

 

 

TABLATURA

 

 

1E]--------------------------------------------------------------------------------------------[

2B]--------------------------------------------------------------------------------------------[

3G]--------------------------------------------------------------------------------------------[

4D]--------------------------------5-------2------------4-------2-----0------0---------[

5A]-------------------------2-----------------------------------------------------------------[

6E]--------0------3--------------------------------------------------------------------------[

 

 

 

 

1E]----------------------------------------------------------------------------------------[

2B]----------------------------------------------------------------------------------------[

3G]----------------------------------------------------------------------------------------[

4D]--------------------------------5--------2----------------4------2-----0---------[

5A]-----------------------2---------------------------------------------------------------[

6E]--------0------3----------------------------------------------------------------------[

 

 

 

APRENDA A TOCAR VIOLÃO DE VEZ

 

COM NOSSO MÉTODO VOCÊ VAI CONSEGUIR!

 

 

TODAS AS MÚSICAS

Please reload

Redes Sociais

  • Wix Facebook page
  • YouTube Social  Icon