LA BAMBA


La Bamba - Código - Tablatura - Cifra - Aula de Violão

Aprenda a fazer um toque fácil para o iniciante no violão, o toque da música La Bamba, e ainda aprenda a fazer os acordes da música.

CÓDIGO (entenda o código)

50 54 42 40 44 42

60 64 52

40 40 54 52

________________________________

TABLATURA

]---------------------------------------------------------------------------------------[

]---------------------------------------------------------------------------------------[

]---------------------------------------------------------------------------------------[

]--------------2----0----4----2------------------------0-----0------------------[

]--0---4--------------------------------------------2------------------4------2--[

]---------------------------------------0------4-------------------------------------[

----------------------------------------------------------------------------------------

CIFRA

Tom: A

A D E Para bailar la bamba __ __ A D E Para bailar la bamba se necesita A D E Una poca de gracia __ __

A D E Una poca de gracia por mí, por ti A D E Ay arriba y arriba __ __ A D E Y arriba y arriba por ti se A D E Por ti se, por ti se

A D E Yo no soy marinero__ __ A D E Yo no soy marinero, soy capitan A D E Soy capitan, soy capitan

A D E Bamba, bamba A D E Bamba, bamba A D E Bamba, bamba

E Ah Ah Ah Ah

ACORDES

A D E

--0-- --2-- --0--

--2-- --3-- --0--

--2-- --2-- --1--

--2-- --0-- --2--

--0-- ----- --2--

----- ----- --0--

A D E D

. . / . . / . . / . . :]

Redes Sociais

  • Wix Facebook page
  • YouTube Social  Icon