BRASILEIRINHO

Brasileirinho - Tablatura

Toque o solo da música brasileirinho no violão.

]--9----9----9----9----0----5----9----0----5----9----0----5----9----0----5----9----0----5----8--[

]-------------------------------------------------------------------------------------------------------------------------[

]-------------------------------------------------------------------------------------------------------------------------[

]-------------------------------------------------------------------------------------------------------------------------[

]-------------------------------------------------------------------------------------------------------------------------[

]--------------------------------------------------------------------------------------------------------------------------[

]-0----5----8----0----5----8----0----5----8-----0-----5----8----0----5----9----0----5----9----0----5----9---[

]----------------------------------------------------------------------------------------------------------------------------------------[

]----------------------------------------------------------------------------------------------------------------------------------------[

]----------------------------------------------------------------------------------------------------------------------------------------[

]----------------------------------------------------------------------------------------------------------------------------------------[

]----------------------------------------------------------------------------------------------------------------------------------------[

]----9----9----9-----9-----8-----7-----6-----5---[

]-----------------------------------------------------------[

]-----------------------------------------------------------[

]-----------------------------------------------------------[

]-----------------------------------------------------------[

]-----------------------------------------------------------[

]--0----2----3----4----3----2----0----2----3----4----3----2----0----2----3----4----3----2----0--[

]-------------------------------------------------------------------------------------------------------------------------[

]--------------------------------------------------------------------------------------------------------------------------[

]--------------------------------------------------------------------------------------------------------------------------[

]--------------------------------------------------------------------------------------------------------------------------[

]--------------------------------------------------------------------------------------------------------------------------[

]---5----4----2----0----5----4----2----0----5----4----2----0--------------------------------[

]------------------------------------------------------------------------------3-----2-----0------------[

]--------------------------------------------------------------------------------------------------2---1--[

]------------------------------------------------------------------------------------------------------------[

]------------------------------------------------------------------------------------------------------------[

]------------------------------------------------------------------------------------------------------------[

]-------------------------------0-----2-----4-----2----0-------------0------2------0---------------------------[

]----------------0-----3-------------------------------------------4-----------------------------4------3-----2---[

]--------1---------------------------------------------------------------------------------------------------------------[

]---2--------------------------------------------------------------------------------------------------------------------[

]--------------------------------------------------------------------------------------------------------------------------[

]--------------------------------------------------------------------------------------------------------------------------[

]---0----2-----3------4----------0-----2-----3-----4----------0----2-----3-----4-----3-----2-----0-----5---[

]--------------------------------------------------------------------------------------------------------------------------------[

]--------------------------------------------------------------------------------------------------------------------------------[

]--------------------------------------------------------------------------------------------------------------------------------[

]--------------------------------------------------------------------------------------------------------------------------------[

]--------------------------------------------------------------------------------------------------------------------------------[

]---0----2----4-----5-----------0----2----4----5----4----2----0----4-------------0----2----3----4--[

]------------------------------------------------------------------------------------------------------------------------[

]-------------------------------------------------------------------------------------------------------------------------[

]-------------------------------------------------------------------------------------------------------------------------[

]-------------------------------------------------------------------------------------------------------------------------[

]-------------------------------------------------------------------------------------------------------------------------[

]-------2----4----2----0-------------------------------------[

]--------------------------------3----2----0------------------[

]-----------------------------------------------------2----------[

]-----------------------------------------------------------------[

]-----------------------------------------------------------------[

]-----------------------------------------------------------------[

]--------------------------------------------------------------------------------------------------------------[

]------------0--1--0-------------------------0--1--0-------------------------0----1----0-----------[

]-------2-----------------2------------2-------------------2------------2---------------------------2---[

]--2-----------------------------2----------------------------------2---------------------------------------[

]---------------------------------------------------------------------------------------------------------------[

]---------------------------------------------------------------------------------------------------------------[

]--1----0-------0----1----0--------0----1----0----------------------------------------------0----1----0----1----0----1----1----3---1---0----[

]-------------3-------------------3------------------------3----0--------------------0----3------------------------------------------------------------------[

]-------------------------------------------------------------------------1--------1-------------------------------------------------------------------------------[

]-------------------------------------------------------------------------------2-----------------------------------------------------------------------------------[

]---------------------------------------------------------------------------------------------------------------------------------------------------------------------[

]---------------------------------------------------------------------------------------------------------------------------------------------------------------------[

]----5-----4-----3-----2-----1-----0---------------------------------[

]------------------------------------------------4--------------------------[

]-------------------------------------------------------------4-------------[

]-----------------------------------------------------------------------------[

]-----------------------------------------------------------------------------[

]-----------------------------------------------------------------------------[

]-----1----1----1----1----0-------------------------------------------0----1----0----1----0----1----3----1---------3----1----0----[

]------------------------------------3----0-----------------0-----3--------------------------------------------------------------------------------[

]-----------------------------------------------1--------1--------------------------------------------------------------------------------------------[

]----------------------------------------------------2-------------------------------------------------------------------------------------------------[

]--------------------------------------------------------------------------------------------------------------------------------------------------------[

]--------------------------------------------------------------------------------------------------------------------------------------------------------[

]--------------5-------------5-------------5---------------[

]------3-------------3-------------3-------------1--------[

]--------------------------------------------------------------[

]--------------------------------------------------------------[

]--------------------------------------------------------------[

]--------------------------------------------------------------[

]---------------------------------------------------------------------------------------------------1----0----------[

]--------------0---1----0-------------------------------0----1----0------------------0-----------------------[

]--------2--------------------2----0-------------2-------------------------2----1------------------------2---[

]---2--------------------------------------4------------------------------------------------------------------------[

]---------------------------------------------------------------------------------------------------------------------[

]---------------------------------------------------------------------------------------------------------------------[

VEJA MAIS SOLOS PARA VIOLÃO

Posts Relacionados

Ver tudo

THE FINAL COUNTDOWN - Europe

The Final Countdown - Europe - Tablatura 1E]---------------------------------------------------------------------------------------------...

Redes Sociais

  • Wix Facebook page
  • YouTube Social  Icon