DÓ RÉ MI FÁ

 

 

 

DÓ  RÉ  MI  FÁ - Código e Tablatura

 

Aprenda como tocar a música fácil Dó ré mi fá para violão. Esta música é muito útil para quem está aprendendo como tocar violão, veja abaixo a melodia em código e tablatura - Tab .

 

CÓDIGO  (Entenda o código)

 

 

DÓ  RÉ  MI  FÁ  FÁ  FÁ

21   23  10  11  11  11

 

DÓ  RÉ  DÓ  RÉ   RÉ  RÉ

21   23  21  23   23  23

 

DO  SOL  FÁ  MI    MI   MI

21   13   11   10    10   10

 

DÓ  RÉ  MI  FÁ   FÁ  FÁ

21   23  10  11   11  11

 

 

 

TABLATURA

 

 

1E]--------------------0----1----1----1---------------------------------------------[

2B]------1----3-------------------------------1----3----1----3----3----3------[

3G]--------------------------------------------------------------------------------------[

4D]--------------------------------------------------------------------------------------[

5A]--------------------------------------------------------------------------------------[

6E]--------------------------------------------------------------------------------------[

 

 

1E]------------3----1----0----0----0-------------------0----1-----1-----1-----[

2B]-----1-------------------------------------1----3----------------------------------[

3G]---------------------------------------------------------------------------------------[

4D]---------------------------------------------------------------------------------------[

5A]---------------------------------------------------------------------------------------[

6E]---------------------------------------------------------------------------------------[

 

 

 

Please reload

Redes Sociais

  • Wix Facebook page
  • YouTube Social  Icon