SHOW DAS PODEROSAS


Show das Poderosas - Anita - Cifra e Tablatura - Aula de Violão

Imprimir em PDF

INTRODUÇÃO

CÓDIGO (entenda o código)

32 32 32 32

32 30 32 32 32 32

21 11 10 10 10 10

10 23 10 10 10 10

10 21

TABLATURA INTRO

]--------------------------------------------------------1---0--0--0--0------0-------0--0--0--0------0----------[

]---------------------------------------------------1-----------------------------------3--------------------------------1-[

]--2--2--2--2-----2--0--2--2--2--2-------------------------------------------------------------------------------[

]------------------------------------------------------------------------------------------------------------------------------[

]------------------------------------------------------------------------------------------------------------------------------[

]------------------------------------------------------------------------------------------------------------------------------[

Am

Pre-para que agora

Em

É a hora, do show das poderosas

Que descem e rebolam

Am

Afrontam as fogosas, só as que incomodam

Em

Expulsam as invejosas

Que ficam de cara quando toca

Am

Pre-para

Em

Se não tá mais à vontade, sai por onde entrei

Am

Quando começo a dançar eu te enlouqueço, eu sei

Em

Meu exército é pesado e a gente tem poder

Ameaça coisa do tipo: Você

F7M Dm

Vai! Solta o som, que é pra me ver dançando

Em Am

Até você vai ficar babando

F7M Dm

Pare o baile pra me ver dançando

__Chama atenção à toa

E

__Perde a linha, fica louca

ACORDES

Am Em F7M Dm Bº

--0-- --0-- --0-- --1-- -----

--1-- --0-- --1-- --3-- --3--

--2-- --0-- --2-- --2-- --2--

--2-- --2-- --3-- --0-- --3--

--0-- --2-- ----- ----- --2--

----- --0-- ----- ----- -----

TODAS AS MÚSICAS

Redes Sociais

  • Wix Facebook page
  • YouTube Social  Icon