BRILHA BRILHA ESTRELINHA

Brilha, brilha estrelinha - Código e Tablatura no violão


Vídeo ensinando como tocar a música Brilha Brilha Estrelinha no violão. Essa é uma música fácil para o iniciante no violão tocar. Abaixo veja a melodia (solinho) da música. Twinkle twinkle little star. Escala de Dó Maior no violão

Imprimir

CÓDIGO (como entender o código)

DÓ DÓ SOL SOL LÁ LÁ SOL

21 21 13 13 15 15 13

FÁ FÁ MI MI RÉ RÉ DÓ

11 11 10 10 23 23 21

DÓ DÓ SOL SOL LÁ LÁ SOL

21 21 13 13 15 15 13

FÁ FÁ MI MI RÉ RÉ DÓ

11 11 10 10 23 23 21

SOL SOL FÁ FÁ MI MI RÉ

13 13 11 11 10 10 23

SOL SOL FÁ FÁ MI MI RÉ

13 13 11 11 10 10 23

DÓ DÓ SOL SOL LÁ LÁ SOL

21 21 13 13 15 15 13

FÁ FÁ MI MI RÉ RÉ DÓ

11 11 10 10 23 23 21

____________________________

TABLATURA

]--------------3----3----5----5----3---------1----1----0----0--------------------[

]-1-----1-------------------------------------------------------------- 3-----3----1--[

]---------------------------------------------------------------------------------------------[

]---------------------------------------------------------------------------------------------[

]---------------------------------------------------------------------------------------------[

]---------------------------------------------------------------------------------------------[

]--------------3----3----5----5----3---------1----1----0----0--------------------[

]-1-----1-------------------------------------------------------------- 3-----3----1--[

]---------------------------------------------------------------------------------------------[

]---------------------------------------------------------------------------------------------[

]---------------------------------------------------------------------------------------------[

]---------------------------------------------------------------------------------------------[

]--3----3----1----1----0----0-----------3----3----1----1----0----0---------[

]----------------------------------------3------------------------------------------3----[

]-------------------------------------------------------------------------------------------[

]-------------------------------------------------------------------------------------------[

]-------------------------------------------------------------------------------------------[

]-------------------------------------------------------------------------------------------[

]--------------3----3----5----5----3---------1----1----0----0--------------------[

]-1-----1-------------------------------------------------------------- 3-----3----1--[

]---------------------------------------------------------------------------------------------[

]---------------------------------------------------------------------------------------------[

]---------------------------------------------------------------------------------------------[

]---------------------------------------------------------------------------------------------[

APRENDA A TOCAR VIOLÃO COM A FÓRMULA QUE DÁ CERTO

Redes Sociais

  • Wix Facebook page
  • YouTube Social  Icon