VAGALUMES - Pollo


Vagalumes - Pollo - Cifra e Tablatura

INTRODUÇÃO

]------3--------3----------2---------0---------3----------3---------2-----------0-----------------[

]------------0---------0---------0---------0---------1----------1----------1------------1---------[

]------------------------------------------------------------------------------------------------------------[

]------------------------------------------------------------------------------------------------------------[

]------------------------------------------------------------------------------------------------------------[

]------------------------------------------------------------------------------------------------------------[

]------7----------7------------5-----------5---------------------------------------------------------------------------------------[

]----------------------------------------------------------------7---------------7--------------7--------------7-------------------[

]-----------7-----------7------------7------------7-----------------7--------------7----------------5--------------5---------[

]---------------------------------------------------------------------------------------------------------------------------------------[

]---------------------------------------------------------------------------------------------------------------------------------------[

]---------------------------------------------------------------------------------------------------------------------------------------[

Melodia do Piano

]-------7--7--7-------------------5--7--------------------------------5--7------------------------------------5--7---------------------------------[

]-----------------------------8-------------------5--5--5-----------8--------------------------------------8------------------7---7---7---7-------[

]-------------------------------------------------------------------------------------------7--7--7---------------------------------------------------------[

]---------------------------------------------------------------------------------------------------------------------------------------------------------------[

]---------------------------------------------------------------------------------------------------------------------------------------------------------------[

]---------------------------------------------------------------------------------------------------------------------------------------------------------------[

REFRÃO

Em C G

Vou caçar mais de um milhão de vagalumes por aí,

D D#º

Pra te ver sorrir eu posso colorir o céu de outra cor,

Em C

Eu só quero amar você,

G D D#º

E quando amanhecer eu quero acordar __

Em

Do seu lado.

(Em C G D D#º)

toca essa sequencia no RAP

REFRÃO

VERSO (RAP)

PARTE C

Am

___Faço dos teus braços um lugar mais seguro

Bm7

___Procurei paz em outro abraço, eu não achei, eu juro

C

___Saio do compasso, passo apuros que vier

D D#

___Abro a janela pra que você possa ver

ACORDES

Em C G D Dº Am Bm7

--0-- --0-- --3-- --2-- --2-- --0-- --2--

--0-- --1-- --0-- --3-- --1-- --1-- --0--

--0-- --0-- --0-- --2-- --2-- --2-- --2--

--2-- --2-- --0-- --0-- --1-- --2-- --0--

--2-- --3-- --2-- ----- ----- --0-- --2--

--0-- ------ --3-- ------ ----- ----- ------

TODAS AS MÚSICAS

Redes Sociais

  • Wix Facebook page
  • YouTube Social  Icon