IN THE END - Linkin Park

 

In the end - Linkin Park - Tablatura e Cifra

 

 

Imprimir

(com desenho dos acrdes)

 

 

 

RIFF

 

1E]---------------------------------------------------------------------------------------------------------------------------[

2B]------------0---0----------------------------------------------0----0------------------------------------------------[

3G]----------------------0-----------------------------0-------------------------0-------------------------------0------[

4D]------2--------------------4----4----4----4----------2---------------------------4---4----4----4-------------[

5A]---------------------------------------------------------------------------------------------------------------------------[

6E]---------------------------------------------------------------------------------------------------------------------------[

 

Pode fazer o mesmo riff acima com outra digitação - abaixo:

 

1E]-------------------------------------------------------------------------------------------------------------------------[

2B]-------------------------------------------------------------------------------------------------------------------------[

3G]-----------4-----4--------------------------------------------4----4-----------------------------------------------[

4D]-----2-------------------5---4--4--4------4--5--2--------------------5----4----4----4----4----5------[

5A]-------------------------------------------------------------------------------------------------------------------------[

6E]-------------------------------------------------------------------------------------------------------------------------[

 

 

INTRODUÇÃO (Guitarra - Harmônicos)

 

Para fazer o efeito do harmônico, encoste o dedo na corda sem pressioná-la na mesma direão do traste (ferrinho) - que está indicado pelo numero na tablatura -e no momento que  tocar a nota, retire o dedo da corda quase que ao mesmo tempo, vai sair um som mais agudo e ressonante.

 

 

1E]--------------------7--------------------------12-----------[

2B]------------7-----------------------7------------------------[

3G]------5---------------------5--------------------------------[

4D]----------------------------------------------------------------[

5A]----------------------------------------------------------------[

6E]----------------------------------------------------------------[

 

Acordes do verso  Em  D  C  D

 

 

Acordes do refrão  Em  G  D  C

 

CIFRA

 

Em

One thing, I don't know why

       D

It doesn't even matter how hard you'd try

 C

Keep that in mind I designed this rhyme

         D

To explain in due time

         Em

(All I know)Time is a valuable thing

 D

Watch it fly by as the pendulum swings

C

Watch it count down 'till the end of the day

                  D

The clock ticks life away

                 Em

(It's so unreal) You didn't look out below

 D

Watch the time go right out the window

  C

Trying to hold on, to didn't even know

    D

I wasted it all just to

                    Em

(Watch you go)I kept everything inside

                       D

And even though I tried It all fell apart

  C

What it meant to me will eventually

                     D

Be a memory of a time when

 

                 Em

I've tried so hard

                     G

And got so far

                   D

But in the end

                            C

It doesn't even matter

              Em

I had to fall

                 G

To lose it all

                    D

But in the end

                            C

It doesn't even matter

                    Em          G

I've put my trust in you

                    D                   C

Pushed as far as I can go

          Em

For all this

                                G                                    D         C

There's only one thing you should've know      ___

 

 

 

 

 

 

 

 

Please reload

Redes Sociais

  • Wix Facebook page
  • YouTube Social  Icon