PARABÉNS PRA VOCÊ

Parabéns pra você - Aula de Violão

Aprenda a tocar a música Parabéns pra você no violão. Saiba como tocar a melodia de parabéns, ou pode chamar de solo da letra, da voz. Esta melodia é fácil e muito boa para o iniciante no violão aprender a tocar suas primeiras notas no violão. Ela usa a escala de Dó Maior, na primeira região do braço do instrumento. Veja abaixo a tablatura ou notação em código do Parabéns pra você no violão.


E quer aprender como tocar violão? Faça o Curso violão Iniciante

NOTAÇÃO DA MÚSICA (CIFRA)

TABLATURA

]----------------------------------------------------------------------------------------------[

]-------------------------1-----0----------------------------------------3-----1-----1--[

]-0----0-----2----0-----------------------0----0-----2-----0------------------------[

]----------------------------------------------------------------------------------------------[

]----------------------------------------------------------------------------------------------[

]----------------------------------------------------------------------------------------------[

]--0----0----3----0------------------------1-----1-----0----------------------------[

]-------------------------1----0-----------------------------------1-----3----1----1--[

]--------------------------------------2-----------------------------------------------------[

]---------------------------------------------------------------------------------------------[

]---------------------------------------------------------------------------------------------[

]---------------------------------------------------------------------------------------------[

NOTAÇÃO EM CÓDIGO

C G

30 30 32 30 21 20

SOL SOL LÁ SOL DÓ SI

C

30 30 32 30 23 21 21

SOL SOL LÁ SOL RÉ DÓ DÓ

F

10 10 13 10 21 20 32

MI MI FÁ MI DÓ SI LÁ

G C

11 11 10 21 23 21 21

FÁ FÁ MI DÓ RÉ DÓ DÓ

FAÇA O CAMINHO PARA TOCAR VIOLÃO

Redes Sociais

  • Wix Facebook page
  • YouTube Social  Icon