ATIREI O PAU NO GATO

Atirei o pau no gato - Código e Tablatura - Aula de Violão

Nesta aula de violão você vai aprender como tocar Atirei o pau no gato no violão, melodia e acordes. Música fácil para iniciante no violão

Imprimir em PDF

13 11 10 23 10 11 13 13 13

SOL FÁ MI RÉ MI FÁ SOL SOL SOL

15 13 11 11 11

LÁ SOL FÁ FÁ FÁ

13 11 10 10 10

SOL FÁ MI MI MI

21 21 15 15 15

DÓ DÓ LÁ LÁ LÁ

17 15 13 13 13

SI LÁ SOL SOL SOL

10 11 13 10 11 13

MI FÁ SOL MI FÁ SOL


11 10 23 21

FÁ MI RÉ DÓ


18 18

DÓ DÓ

_____________________________

TABLATURA

]----3---------1----0-----------0----1----3-----3----3-------[

]----------------------------3-----------------------------------------[

]------------------------------------------------------------------------[

]------------------------------------------------------------------------[

]------------------------------------------------------------------------[

]------------------------------------------------------------------------[

]--5-----3-----1----1----1----------3----1----0----0----0--[

]------------------------------------------------------------------------[

]------------------------------------------------------------------------[

]------------------------------------------------------------------------[

]------------------------------------------------------------------------[

]------------------------------------------------------------------------[

]----------------5----5----5---------7-----5-----3-----3-----3--[

]--1----1---------------------------------------------------------------[

]--------------------------------------------------------------------------[

]--------------------------------------------------------------------------[

]--------------------------------------------------------------------------[

]--------------------------------------------------------------------------[

]---0----1----3------0----1----3----1----0------------------[

]---------------------------------------------------------3-----1---[

]----------------------------------------------------------------------[

]----------------------------------------------------------------------[

]----------------------------------------------------------------------[

]----------------------------------------------------------------------[

]------------8---------8-------------[

]--------------------------------------[

]--------------------------------------[

]--------------------------------------[

]--------------------------------------[

]--------------------------------------[

CIFRA

G C Atirei o pau no gato - to G Mas o gato - to C Não Morreu - reu - reu F7M Dona Chica - ca C Admirou-se - se G Do berro, C Do berro que o gato deu: Miau !



Veja também:

As notas musicais no violão - dó, ré, mi, fá, sol

Ciranda Cirandinha

Boi da Cara Preta

Redes Sociais

  • Wix Facebook page
  • YouTube Social  Icon