BATMAN

BATMAN - TABLATURA - AULA DE VIOLÃO

Aprenda como tocar a música do batman - Violão Iniciante

IMPRIMIR EM PDF

Em Código

42 42 41 41 40 40 41 41 (4x)

32 32 31 31 30 30 31 31 (2x)

34 34 33 33 32 32 33 33 (1x)

32 32 31 31 30 30 31 31 (1x)

42 42 41 41 40 40 41 41 (4x)

A

]--------------------------------------------------------------------[

]--------------------------------------------------------------------[

]--------------------------------------------------------------------[

]---2------2------1------1------0------0------1------1----[

]--------------------------------------------------------------------[

]--------------------------------------------------------------------[ (4X)

D

]-------------------------------------------------------------------------[

]-------------------------------------------------------------------------[

]--2-----2------1------1------0------0------1------1-----------[

]-------------------------------------------------------------------------[

]-------------------------------------------------------------------------[

]-------------------------------------------------------------------------[ (2X)

A

]--------------------------------------------------------------------[

]--------------------------------------------------------------------[

]--------------------------------------------------------------------[

]--2-----2-----1-------1-------0-------0------1-----1-----[

]--------------------------------------------------------------------[

]--------------------------------------------------------------------[ (2X)

E

]----------------------------------------------------------------[

]----------------------------------------------------------------[

]--4-----4------3-----3------2------2------3-----3----[

]----------------------------------------------------------------[

]----------------------------------------------------------------[

]----------------------------------------------------------------[

D

]---------------------------------------------------------------[

]---------------------------------------------------------------[

]---2-----2-----1-----1-----0-----0-----1-----1------[

]---------------------------------------------------------------[

]---------------------------------------------------------------[

]---------------------------------------------------------------[

A

]-------------------------------------------------------------------[

]-------------------------------------------------------------------[

]-------------------------------------------------------------------[

]---2-----2------1-----1------0------0------1-----1------[

]-------------------------------------------------------------------[

]-------------------------------------------------------------------[ (2X)

ACORDES BATMAN

A E D

--0-- --0-- --2--

--2-- --0-- --3--

--2-- --1-- --2--

--2-- --2-- --0--

--0-- --2-- ------

------ --0-- ------

TODAS AS MÚSICAS


Músicas fáceis

Intermediário

Solos

Músicas de filmes

Músicas de Rock

Redes Sociais

  • Wix Facebook page
  • YouTube Social  Icon