CALIFORNICATION


Californication - Red hot Chilli Peppers - Tablatura - Cifra - Aula de Violão

IMPRIMIR EM PDF

RIFF GUITARRA

Am F

]--------------------------------------------------------------------------------[

]-------------------0----1-----------------------------------------------------[

]------------------------------------------------------------0-----2-----------[

]-----------2-------------------------------------------------------------------[

]-----0----------------------------------------3-------------------------------[

]--------------------------------------1-----------------------------------------[

RIFF BAIXO

]-----------------------------------------------------------------------------------[

]-----------------------------------------------------------------------------------[

]-----------------------------------------------------------------------------------[

]-------------2---2---0h2p0-----------------------------0----------------[

]------0------------------------------3---------------3---------------3-------[

]----------------------------------------------1-----------------------------------[

]------------------------------------------------------------------------------------------[

]------------------------------------------------------------------------------------------[

]------------------------------------------------------------------------------------------[

]-------------2---2---0h2p0---------------------------------3-----0------------[

]-----0--------------------------------3----------------3------------------------------[

]-------------------------------------------------1---------------------------------------[

CIFRA

Am

Psychic spies from China

F7M

Try to steal your mind's elation

Am

Little girls from Sweden

F7M

Dream of silver screen quotations

C G

And if you want these kind of dreams

F7M Dm

It's Californication

Am

It's the edge of the world

F7M

And all of western civilization

Am

The sun may rise in the East

F7M

At least it settles in the final location

C G

It's understood that Hollywood

F7M Dm

Sells Californication

Am

Pay your surgeon very well

F7M

To break the spell of aging

Am

Celebrity skin is this your chin

F7M

Or is that war your waging

Am F7M

__First born unicorn

Am F7M

__Hard core soft porn

C G Dm Am

Dream of Californication __

C G Dm

Dream of Californication

Am

Marry me girl be my fairy to the world

F7M

Be my very own constellation

Am

A teenage bride with a baby inside

F7M

Getting high on information

C G

And buy me a star on the Boulevard

F7M Dm

It's Californication

Am

Space may be the final frontier

F7M

But it's made in a Hollywood basement

Am

Cobain can you hear the spheres

F7M

Singing songs off station to station

C G

And Alderaan's not far away

F7M Dm

It's Californication

Am

Born and raised by those who praise

F7M Am

Control of population, everybody's been there and

F7M

I don't mean on vacation



Am F7M

__First born unicorn

Am F7M

__Hard core soft porn

C G Dm Am

Dream of Californication __

C G Dm Am

Dream of Californication __

C G Dm Am

Dream of Californication __

C G Dm Am

Dream of Californication __

Am

Destruction leads to a very rough road

F7M

But it also breeds creation

Am

And earthquakes are to a girl's guitar

F7M

They're just another good vibration

C G

And tidal waves couldn't save the world

F7M Dm

From Californication

ACORDES

Am F7M C G Dm

--0-- --0-- --0-- --3-- --1--

--1-- --1-- --1-- --0-- --3--

--2-- --2-- --0-- --0-- --2--

--2-- --3-- --2-- --0-- --0--

--0-- ----- --3-- --2-- -----

----- ----- ----- --3-- -----

TABLATURA DA MELODIA

TAB RIFF E BAIXO

TODAS AS MÚSICAS

Redes Sociais

  • Wix Facebook page
  • YouTube Social  Icon