QUE PAÍS É ESSE?

 

 

Que país é esse? - Legião Urbana - Tablatura do solo e cifra

 

Aprenda a tocar uma música fácil em cifra para o iniciante no violão, é a música Que país é esse, da Banda de rock dos anos 80, Legião Urbana, composta por Renato Russo. É uma música que tem uma introdução bem legal e fácil para você que está aprendendo a tocar violão. 

 

Imprimir em PDF

 

 

 

INTRODUÇÃO

 

 

CÓDIGO

 

25   17   25   17   25   17

 

25   17   23   15

 

25   13   25   13    25    13

 

25   13   25    23    15

 

 

 

TABLATURA

 

1E]-----------7-------7--------7-------------7---------5-------[

2B]-----5-------5--------5-------------5---------3-------------[

3G]-------------------------------------------------------------------[

4D]-------------------------------------------------------------------[

5A]-------------------------------------------------------------------[

6E]-------------------------------------------------------------------[

 

1E]--------3----------3---------3---------------3------------------5----[

2B]---5---------5---------5---------------5----------5------3----------[

3G]----------------------------------------------------------------------------[

4D]----------------------------------------------------------------------------[

5A]----------------------------------------------------------------------------[

6E]----------------------------------------------------------------------------[

 

 

________________________________________________________________

 

 

CIFRA

 

 

 

           Em                    C       D

   Nas favelas, no Senado__

Em                            C       D

__Sujeira pra todo lado__

                         Em                          C        D

   Ninguém respeita a Constituição    ___

           Em                                 C                 D

   Mas todos acreditam no futuro da nação

Em            C      D

__Que país é esse?

Em           C      D

__Que país é esse?

Em            C      D

__Que país é esse?

           Em   C         D

Que país é esse?__

             Em                     C            D

No Amazonas, no Araguaia iá,,

         Em                            C     D

Na baixada fluminense __  __

           Em                          C       D

Mato Grosso, Minas Gerais   __

                Em                            C      D

e no  Nordeste tudo em paz __   __

                 Em                  C      D

Na morte eu descanso__   __

             Em                          C      D

Mas o sangue anda solto__  __

                    Em              C         D           Em                C        D

Manchando os papéis,__    __documentos fiéis___   __

           Em                         C      D

Ao descanso do patrão__   __

 

 

REFRÃO

 

                Em                    C       D

Terceiro mundo, se for __    __

          Em               C        D

Piada no exterior__    __

                Em                        C        D

Mas o Brasil vai ficar rico__      __

                    Em                     C       D

Vamos faturar um milhão__     __

                    Em                           C         D 

Quando vendermos todas as almas__

                    Em                           C        D

Dos nossos índios num leilão__      __

 

 

 

 

 

 

 

 

 

 

 

 

 

 

 

 

 

BATIDA

 

 

 

 

 

 

 

 


VEJA TODAS AS MÚSICAS DO SITE

 

Please reload

Redes Sociais

  • Wix Facebook page
  • YouTube Social  Icon