PIRATAS DO CARIBE


PARTE 2

Piratas do Caribe - Tablatura

Arquivo em PDF / Imprimir

Aprenda como tocar a melodia (solo) de piratas do Caribe no violão, veja a tablatura companhada da cifra (acordes) do tema do filme piratas do Caribe para violão ou guitarra.

Dm Bb Am Dm

]----------------------------0--1--1-----1--3--0--0--------------------[

]-------1--3--3------3------------------------------------3--1--1h3--[

]--2----------------------------------------------------------------------------[

]--------------------------------------------------------------------------------[

]--------------------------------------------------------------------------------[

]--------------------------------------------------------------------------------[

Bb F C Dm

]------------------------------0--1--1-------1--3--0--0---------------[

]-------1--3--3-------3---------------------------------------3--1--3-[

]--2--------------------------------------------------------------------------[

]-------------------------------------------------------------------------------[

]-------------------------------------------------------------------------------[

]-------------------------------------------------------------------------------[

Dm Bb Gm Dm

]------------------------------1--3--3------3--5--6--6-------5--3--5------[

]--------1--3--3------3--------------------------------------------------------3-[

]--2-----------------------------------------------------------------------------------[

]---------------------------------------------------------------------------------------[

]---------------------------------------------------------------------------------------[

]---------------------------------------------------------------------------------------[

Bb Dm A

]-------0---1---1---3---5-----------------1--0--0--1-------------0-[

]--3--------------------------------3----3------------------------3---------[

]---------------------------------------------------------------------------------[

]---------------------------------------------------------------------------------[

]---------------------------------------------------------------------------------[

]---------------------------------------------------------------------------------[

Dm Bb Am Dm

]------------------------0--1--1-----1--3--0--0-----------------[

]----1--3--3-----3----------------------------------3--1--1h3-[

]-2----------------------------------------------------------------------[

]-------------------------------------------------------------------------[

]-------------------------------------------------------------------------[

]-------------------------------------------------------------------------[

Bb F C Dm

]---------------------------0--1--1------1--3--0--0--------------[

]----1--3--3-------3------------------------------------3--1--3-[

]-2---------------------------------------------------------------------[

]-------------------------------------------------------------------------[

]-------------------------------------------------------------------------[

]-------------------------------------------------------------------------[

Dm Bb Gm Dm

]----------------------1--3--3-----3-5-6-6----5--3--5----[

]---1-3-3-----3-----------------------------------------------3-[

]-2-------------------------------------------------------------------[

]----------------------------------------------------------------------[

]----------------------------------------------------------------------[

]----------------------------------------------------------------------[

Bb Dm A Dm C

]-----0-1-1----3--5---------1--0--0-----------------0-1-1-3-[

]-3-----------------------3---3------------3--1--3-3---------------[

]----------------------------------------------------------------------------[

]----------------------------------------------------------------------------[

]----------------------------------------------------------------------------[

]----------------------------------------------------------------------------[

A Gm A

]----5----------------------6---3----------------------------------[

]---------6--3-----------------------3-----------------------------[

]-------------------2-----------------------3------2----3---2----[

]-----------------------------------------------------------------------[

]-----------------------------------------------------------------------[

]-----------------------------------------------------------------------[

Dm C

]----5--5--5--6--5-------3--3--3--3--5--------[

]-----------------------------------------------------------[

]-----------------------------------------------------------[

]-----------------------------------------------------------[

]-----------------------------------------------------------[

]-----------------------------------------------------------[

Dm A Dm

]-------5--5--5--6--5-------3-----------------------[

]----------------------------------------6--5--3--------[

]-----------------------------------------------------------[

]-----------------------------------------------------------[

]-----------------------------------------------------------[

]-----------------------------------------------------------[

Dm C F C

]------------------3--5--3-----------------3--5--3------[

]----3--5--6-----------------6--5--6--------------------[

]---------------------------------------------------------------[

]---------------------------------------------------------------[

]---------------------------------------------------------------[

]---------------------------------------------------------------[

F A Dm

]----------3--5------3-------------------------------------------[

]-----6-------------------6--5--6--5--3----------3---------[

]---------------------------------------------------5--------------[

]--------------------------------------------------------------------[

]--------------------------------------------------------------------[

]--------------------------------------------------------------------[

Dm C F Bb

]--------------------------------3----------3------5--3-------------[

]--3--5--6-------5--6-----------6-----------------------6--3---[

]-------------------------------------------------------------------------[

]-------------------------------------------------------------------------[

]-------------------------------------------------------------------------[

]-------------------------------------------------------------------------[

Dm Gm A

]----------------3--5--6-----------3-----------3-----------------------[

]--3--5--6------------------3------------6------------6--3--5--2--[

]------------------------------------------------------------------------------[

]------------------------------------------------------------------------------[

]------------------------------------------------------------------------------[

]------------------------------------------------------------------------------[

Dm Gm F C Gm Dm A Dm

]-5------6--------5--5--5--5--3-------3--------------3---------------[

]----------------------------------------------------6----6-------5--5--3--[

]---------------------------------------------------------------------------------[

]---------------------------------------------------------------------------------[

]---------------------------------------------------------------------------------[

]---------------------------------------------------------------------------------[

Dm Gm F C

]---5--------6-----------5--5--5--5--3--------[

]-------------------------------------------------------[

]-------------------------------------------------------[

]-------------------------------------------------------[

]-------------------------------------------------------[

]-------------------------------------------------------[

Gm Dm A Dm

]---3------------------------3--------------------------[

]-------------6--------6----------5---5---3---------[

]----------------------------------------------------------[

]----------------------------------------------------------[

]----------------------------------------------------------[

]----------------------------------------------------------[

Dm Bb F C

]---------------5-------------------6--------------------5---5---8--5--3--[

]--3--5--6----------3--5--6---------3--5--6----------------------------[

]-----------------------------------------------------------------------------------[

]-----------------------------------------------------------------------------------[

]-----------------------------------------------------------------------------------[

]-----------------------------------------------------------------------------------[

Gm Dm A Dm

]---3-----------------------------------------------[

]------------6------5---6----5----3-----------[

]----------------------------------------------------[

]----------------------------------------------------[

]----------------------------------------------------[

]----------------------------------------------------[

APRENDA A SOLAR

ACORDES

Redes Sociais

  • Wix Facebook page
  • YouTube Social  Icon