THE SIMPSONS

Música dos Simpsons - Tablatura

IMPRIMIR TABLATURA

]----------------------5--------------------------------------------------------[

]---------5----7-----------8----5-------------------------------------------[

]--5--------------------------------------5------------------------------------[

]---------------------------------------------------7----4----4----4--5----[

]---------------------------------------------------------------------------------[

]---------------------------------------------------------------------------------[ (2x)

]-------------------------4-----------------------------------------------------------[

]-----------4-----6-----------7-----4---------------------------------------------[

]----4--------------------------------------4----------------------------------------[

]-----------------------------------------------------6-----3-----3-----3-----4--[

]---------------------------------------------------------------------------------------[

]---------------------------------------------------------------------------------------[ (2x)

]------------------------9-----------------------------------------------------------------[

]--------9----11------------12----9-------------------------------------------------[

]--9--------------------------------------------9-----------------------------------------[

]---------------------------------------------------------11------------------------------[

]--------------------------------------------------------------------8----8----8----9--[

]--------------------------------------------------------------------------------------------[ (2x)

]-------------------------5-----------------------------------------------------------------[

]----------5-----7-------------8------5-------------------------------------------------[

]--5---------------------------------------------5-----------------------------------------[

]-----------------------------------------------------------7-----4-----4-----4-----5--[

]---------------------------------------------------------------------------------------------[

]---------------------------------------------------------------------------------------------[ (2x)

]--6----6--------------6----6---------------6----6---------------6---6---------------[

]-------------4----4---------------4----4---------------4----4--------------4-----4--[

]-----------------------------------------------------------------------------------------------[

]-----------------------------------------------------------------------------------------------[

]-----------------------------------------------------------------------------------------------[

]-----------------------------------------------------------------------------------------------[ (2x)

]-------------------------9----------------------------------------------------------------[

]---------9----11------------12----9-----------------------------------------------[

]--9-------------------------------------------9-----------------------------------------[

]------------------------------------------------------11----8----8----8----9-------[

]-------------------------------------------------------------------------------------------[

]-------------------------------------------------------------------------------------------[ (2x)

]------------------------5---------------------------------------------------------------[

]---------5-----7-------------8-----5------------------------------------------------[

]--5--------------------------------------------5---------------------------------------[

]----------------------------------------------------------7---4----4----4----5----[

]-----------------------------------------------------------------------------------------[

]-----------------------------------------------------------------------------------------[ (1x)

_______________________________

CÓDIGO

35 25 27 15 28 25 35 47 44 44 44 45 (2X)

34 24 26 14 27 24 34 46 43 43 43 44 (2X)

39 29 211 19 212 29 39 411 48 48 48 49 (2X)

35 25 27 15 28 25 35 47 44 44 44 45 (2X)

16 16 24 24 16 16 24 24 16 16 24 24 16 16 24 24 (2X)

39 29 211 19 212 29 39 411 48 48 48 49 (2X)

35 25 27 15 28 25 35 47 44 44 44 45 (1X)

Você também irá gostar de:

Pantera Cor de Rosa

Harry Potter

TODAS AS MÚSICAS

Músicas fáceis

Intermediário

Solos

Músicas de Filmes

Músicas de Rock

Redes Sociais

  • Wix Facebook page
  • YouTube Social  Icon