STIR IT UP

 

Stir it up - Bob Marley - Tablatura

 

Imprimir

 

Acordes:  A / A / D / E

 

CÓDIGO (como entender o código)

 

 

65  54  54  55  54   54  55  44  47  55  57  46  49

 

 

Verso

 

65  65  67  54  65

 

55  55  57  44  55

 

__________________________________________________________

 

TABLATURA

 

 

Linha de Baixo

 

1E]----------------------------------------------------------------------------------------[

2B]----------------------------------------------------------------------------------------[

3G]----------------------------------------------------------------------------------------[

4D]-------------------------------------------------4----7----------------6----9-----[

5A]-----------4----4----5----4----4----5----------------5----7------------------[

6E]------5--------------------------------------------------------------------------------[

 

 

Verso

 

1E]-----------------------------------------------------------------------------------------[

2B]-----------------------------------------------------------------------------------------[

3G]-----------------------------------------------------------------------------------------[

4D]-----------------------------------------------------------------------------------------[

5A]------------------------4----------------------------------------4--------------------[

6E]------5----5----7---------5-------------5-----5----7-------------5------------[

 

 

 

CIFRA

 

Tom: A

 

Intro: A  D  E   (3x)

 

  A           D           E           A                                       D     E
Stir it up;   little darlin', stir it up. Come on, baby__   __
                          A           D           E           A               D     E
Come on and stir it up:   little darlin', stir it up.  Ooh  __

 

 

       A
It's been a long, long time, yeah
 D           E                     A              D      E
   Since got you on my mind.  __   __
  A                                        D             E
Now you are here  I said    It's so clear
      A                                              D                 E
To see what we could do, baby,   just me and you

 

 

  A           D           E           A                                       D     E
Stir it up;   little darlin', stir it up. Come on, baby__   __
                          A           D           E           A               D     E
Come on and stir it up:   little darlin', stir it up.  Ooh  __

 

 

A
I'll push the wood 
         D               E
Then   I blaze ya fire
A                                   D                 E
   Then I'll satisfy your   heart's desire
A                     D           E
   Said, I stir it   every minute
A
   All you got to do, baby 
D               E
  Is keep it in, eh

 

 

  A           D           E           A                                       D     E
Stir it up;   little darlin', stir it up. Come on, baby__   __
                          A           D           E           A               D     E
Come on and stir it up:   little darlin', stir it up.  Ooh  __

 

 

.A                   D                  E

  Quench me   when I'm thirsty

A

  Come on and cool me down, baby,

D             E

   when I'm hot

A                                           D           E

   Your recipe is, - darlin' -    is so tasty

A                             D                 E

   When you show    and stir your pot

 

 

  A           D           E           A                                       D     E
Stir it up;   little darlin', stir it up. Come on, baby__   __
                          A           D           E           A               D     E
Come on and stir it up:   little darlin', stir it up.  Ooh  __

 

 

 

 

 

 

 

 

 

 

 

 

 

 

 

 

 

 

 

 

 

 

 

 

 

TODAS AS MÚSICAS

 

 

Please reload

Redes Sociais

  • Wix Facebook page
  • YouTube Social  Icon