CAI CAI BALÃO

Cai Cai Balão - Tablatura e código


Aprenda aqui a tocar a melodia (solo) da música cai cai balão. Esta pequena melodia, feita na escala de dó maior é muito boa para quem está começando a tocar violão. è necessário ficar com os dedos bem hábeis para conseguir tocar. Fazendo estas pequenas melodias e toques para iniciantes você conseguirá começar o seu desenvolvimento motor no violão. O caminho completo para tocar, com muitos toques, melodias, acordes e cifras é o Curso Violão Iniciante.

Imprimir em PDF

TABLATURA

]-3---3---1---0---------3---3---1---0----------3---5---3---1---0------[

]-----------------------------------------------------------------------------------3--[

]---------------------------------------------------------------------------------------[

]---------------------------------------------------------------------------------------[

]---------------------------------------------------------------------------------------[

]---------------------------------------------------------------------------------------[

]------0----1--------0---1------0-----1--------3---5---3---1---0-------------[

]-3---------------3-----------3------------------------------------------------3---1--[

]--------------------------------------------------------------------------------------------[

]--------------------------------------------------------------------------------------------[

]--------------------------------------------------------------------------------------------[

]--------------------------------------------------------------------------------------------[

CÓDIGO - (PRA ENTENDER O CÓDIGO CLIQUE AQUI)

SOL SOL FÁ MI

13 13 11 10

SOL SOL FÁ MI

13 13 11 10

SOL LÁ SOL FÁ MI RÉ

13 15 13 11 10 23

RÉ MI FÁ

23 10 11

RÉ MI FÁ

23 10 11

RÉ MI FÁ

23 10 11

SOL LÁ SOL FÁ MI RÉ DÓ

13 15 13 11 10 23 21

CIFRA

C

Cai, cai, balão, cai, cai, balão G Aqui na minha mão

Não Cai não, não cai não, não cai não C Cai na rua do Sabão

Você também vai gostar de:

TOCANDO MÚSICAS COM DÓ, RÉ, MI, FÁ, SOL, NO VIOLÃO

APRENDA A TOCAR VIOLÃO AGORA

Redes Sociais

  • Wix Facebook page
  • YouTube Social  Icon