COME AS YOU ARE RIFF Nirvana


Come as you are - Nirvana

Iniciante no violão, aprenda a tocar um dos riffs mais famosos e fáceis do Rock, Aprenda como tocar Come as you are no violão. Este riff do Nirvana só utiliza duas cordas e é bem simples pra tocar.

Come as you are - Violão - Riff fácil

TABLATURA

RIFF

]-----------------------------------------------------------------------------------------------[

]-----------------------------------------------------------------------------------------------[

]-----------------------------------------------------------------------------------------------[

]-----------------------------------------------------------------------------------------------[

]--------------------------0----------0-------------------------------------2---------------[

]--0----0----1----2----------2---------2-----2-----1------0-------------0----0---[

]------------------------------------------------------------------------------------------[

]------------------------------------------------------------------------------------------[

]------------------------------------------------------------------------------------------[

]------------------------------------------------------------------------------------------[

]-----2----------------------0--------0-----------------------------2-----------------[

]-----------0----1----2---------2---------2----2----1----0----------0----0----[

CÓDIGO (para entender o código clique aqui)

60 60 61 62 50 62 50 62 62 61 60 52 60 60 1x

52 60 61 62 50 62 50 62 62 61 60 52 60 60 (depois fica repetindo este)

gonna

APRENDA ATÉ CONSEGUIR TOCAR CIFRAS, BATIDAS E DEDILHADOS, O CAMINHO ESTÁ AQUI

Redes Sociais

  • Wix Facebook page
  • YouTube Social  Icon