EQUALIZE - Pitty - Introdução

 

 

Equalize - Pitty - iNTRODUÇÃO

 

Veja como tocar a introdução da música equalize, da cantora Pitty, esta é uma lição para o iniciante no violão.

 

 

CÓDIGO

 

42  44  30  20  23

42  44  30  23   20

42  44  30  20   23   D

 

 

TABLATURA

 

1E]--------------------------------------[
2B]-----------------------0----3------[
3G]----------------0-------------------[
4D]----2---4--------------------------[
5A]--------------------------------------[
6E]--------------------------------------[

 

1E]----------------------------------------[
2B]--------------------------3----0-----[
3G]------------------0-------------------[
4D]----2----4--------------------------[
5A]---------------------------------------[
6E]---------------------------------------[

 

1E]-----------------------------------------2-----[
2B]--------------------------0----3------3-----[
3G]-----------------0---------------------2-----[
4D]----2---4----------------------------0------[
5A]------------------------------------------------[
6E]------------------------------------------------[

 

 

 

.

Please reload

Please reload

Redes Sociais

  • Wix Facebook page
  • YouTube Social  Icon