ROCKY BALBOA - Música do filme - Aula de Violão


Tablatura do filme Rocky

Imprimir em PDF

Vídeo Aula de violão da música Gonna Fly Now, clássico do cinema, do filme Rocky. Você vai aprender como tocar a melodia da música, que é muito fácil de fazer e é ótima para o iniciante no violão.

Dm Em Dm Em

]-------0---3---5--------5---7---0-------0---3---5------5---7---0------------[

]---------------------------------------------------------------------------------------------[

]---------------------------------------------------------------------------------------------[

]---------------------------------------------------------------------------------------------[

]---------------------------------------------------------------------------------------------[

]---------------------------------------------------------------------------------------------[

Dm Em F7M E7

]------------------------------0--------------------------------------------1--0----[

]--3---1---3---1---3---------------1--1--0--0-------------------------------[

]--------------------------------------------------------------2--2--0--------------[

]---------------------------------------------------------------------------------------[

]---------------------------------------------------------------------------------------[

]---------------------------------------------------------------------------------------[

Dm Em Dm Em

]--0---3---5--------5---7---0-------0---3---5------5---7---0----[

]--------------------------------------------------------------------------------[

]--------------------------------------------------------------------------------[

]--------------------------------------------------------------------------------[

]--------------------------------------------------------------------------------[

]--------------------------------------------------------------------------------[

Dm Em F7M E7

]----------------------------------0--------------8--8--7--7--5--5--3--------13--12---[

]---3---1---3-------1---3-----------------------------------------------------------------------[

]------------------------------------------------------------------------------------------------------[

]------------------------------------------------------------------------------------------------------[

]------------------------------------------------------------------------------------------------------[

]------------------------------------------------------------------------------------------------------[

Dm Em F7M Dm Em 7

]---0---3---5-----------------------------3--1--0----------1--0---[

]-------------------------------------------------------------3-------------[

]-----------------------------------------------------------------------------[

]-----------------------------------------------------------------------------[

]-----------------------------------------------------------------------------[

]-----------------------------------------------------------------------------[

Dm Am

]-----------------1----1--1--1--1------------------0----0--0--0--0--0------[

]-----------------3----3--3--3--3------------------1----1--1--1--1--1------[

]-----------------2----2--2--2--2------------------2----2--2--2--2--2------[

]-----------------0----0--0--0--0-------0---2---2----2--2--2--2--2------[

]-----0---3--------------------------------------------0----0--0--0--0--0------[

]-----------------------------------------------------------------------------------------[

Dm Am

]-----------------1----1--1--1--1-------------------0----0--0--0--0--0------[

]-----------------3----3--3--3--3-------------------1----1--1--1--1--1------[

]-----------------2----2--2--2--2-------------------2----2--2--2--2--2------[

]-----------------0----0--0--0--0--------0---2---2----2--2--2--2--2------[

]-----0---3---------------------------------------------0----0--0--0--0--0------[

]-------------------------------------------------------------------------------------------[

G Am Bb

]---3---3--3--3-----0---0--0--0--0----1--1--1--1--1--1--1--1---------[

]---0---0--0--0-----1---1--1--1--1----3--3--3--3--3--3--3--3---------[

]---0---0--0--0-----2---2--2--2--2----3--3--3--3--3--3--3--3---------[

]---0---0--0--0-----2---2--2--2--2----3--3--3--3--3--3--3--3---------[

]---2---2--2--2-----0---0--0--0--0----1--1--1--1--1--1--1--1---------[

]---3---3--3--3------------------------------------------------------------------------[

APRENDA A TOCAR VIOLÃO

Redes Sociais

  • Wix Facebook page
  • YouTube Social  Icon