SUPERMAN - Aula de Violão

 

Superman - Tablatura - Aula de Violão

 

 

Imprimir Solo

Imprimir Baixo

 

Introdução

 

 

]---3----3---------3----3----------8----3-------------3----3----------------3----3---------12----10----10--------[

]---------------1------------------------------------1--------------------1--------------------------------------------------------[

]--------------------------------------------------------------------------------------------------------------------------------------[

]--------------------------------------------------------------------------------------------------------------------------------------[

]--------------------------------------------------------------------------------------------------------------------------------------[

]--------------------------------------------------------------------------------------------------------------------------------------[

 

 

 

 

]-----3----3----------3----3---------8-----3-------------------8-----8-----8-------10-----10-----10-----5-----3-----3-------[

]----------------1---------------------------------------1----------------------------------------------------------------------------------------[

]----------------------------------------------------------------------------------------------------------------------------------------------------[

]----------------------------------------------------------------------------------------------------------------------------------------------------[

]----------------------------------------------------------------------------------------------------------------------------------------------------[

]----------------------------------------------------------------------------------------------------------------------------------------------------[

 

 

 

Preparação para o tema principal

 

 

]------------------------------------------------------------[

]--1--1--1--1--1--1----1--1--1--1--1---------[

]-----------------------------------------------------------[

]-----------------------------------------------------------[         (4x)

]-----------------------------------------------------------[

]-----------------------------------------------------------[

 

 

 

 

]--1--1--1--1--1--1----1--1--1--1--1---3--3--3--3--3--3----3--3--3--3--3-------[

]-------------------------------------------------------------------------------------------------------------[

]-------------------------------------------------------------------------------------------------------------[

]-------------------------------------------------------------------------------------------------------------[

]--------------------------------------------------------------------------------------------------------------[

]--------------------------------------------------------------------------------------------------------------[

 

 

 

 

]------4--4--4--4--4--4----4--4--4--4--4---4--4--4--4--4--4----4--4--4--4--4-----[

]---------------------------------------------------------------------------------------------------------------[

]---------------------------------------------------------------------------------------------------------------[

]---------------------------------------------------------------------------------------------------------------[

]---------------------------------------------------------------------------------------------------------------[

]---------------------------------------------------------------------------------------------------------------[

 

 

 

 

]------3--3--3--3--3--3----3--3--3--3--3---3--3--3--3--3--3----3--3--3--3--3-------[

]-----------------------------------------------------------------------------------------------------------------[

]-----------------------------------------------------------------------------------------------------------------[

]-----------------------------------------------------------------------------------------------------------------[

]-----------------------------------------------------------------------------------------------------------------[

]-----------------------------------------------------------------------------------------------------------------[

 

 

 

]-----3--3--3--3--3--3----3--3--3--3--3---------[

]--------------------------------------------------------------[

]--------------------------------------------------------------[

]--------------------------------------------------------------[

]--------------------------------------------------------------[

]--------------------------------------------------------------[

 

 

Tema Principal

 

 

]--------------------------------3-----5--3--1--3----------------------------------------3-----5--3--1--5--3------[

]----------------------1--1------------------------------------------------------1--1---------------------------------------[

]-------0--0--0-----------------------------------------------0--0--0----------------------------------------------------[

]---------------------------------------------------------------------------------------------------------------------------------[

]---------------------------------------------------------------------------------------------------------------------------------[

]---------------------------------------------------------------------------------------------------------------------------------[

 

 

 

 

]---------------------7-------3----------------------7--------3---------------------------7--5--7--8-------------------------------------------------[

]------1--1--1-----------------------1--1--1-----------------------------1--1--1-----------------------------------1--1--1--1--1--1--------[

]---------------------------------------------------------------------------------------------------------------------------------------------------------------[

]---------------------------------------------------------------------------------------------------------------------------------------------------------------[

]---------------------------------------------------------------------------------------------------------------------------------------------------------------[

]---------------------------------------------------------------------------------------------------------------------------------------------------------------[

 

 

 

 

 

 

 

 

 

 

 

 

 

Please reload

Please reload

Redes Sociais

  • Wix Facebook page
  • YouTube Social  Icon