THE FINAL COUNTDOWN - Europe

 

 

 

 

The Final Countdown - Europe - Tablatura

 

 

1E]---------------------------------------------------------------------------------------------------[

2B]-----2----0----2----------3----2----3----2------------3----2----3--------------------[

3G]---------------------------------------------------------4-------------------------------1------[

4D]------------------------4--------------------------------------------------------4--------------[

5A]---------------------------------------------------------------------------------------------------[

6E]---------------------------------------------------------------------------------------------------[

 

 

1E]-------------------------------------------------------------[

2B]-------------------------------------------------------------[

3G]--------4----2----4----2----4----1----4----2------[

4D]-------------------------------------------------------------[

5A]-------------------------------------------------------------[

6E]-------------------------------------------------------------[

 

 

1E]----------------------------------------------------------------------------------------------------------[

2B]------2----0----2-----------3----2----3----2------------3----2----3-------------------------[

3G]-----------------------------------------------------------4------------------------------------1------[

4D]-------------------------4-------------------------------------------------------------4---------------[

5A]----------------------------------------------------------------------------------------------------------[

6E]----------------------------------------------------------------------------------------------------------[

 

 

1E]------------------------------------------------------------------[

2B]-----------------------------------------------------------------[

3G]---------4----2----4----2----4----1----4----2---------[

4D]-----------------------------------------------------------------[

5A]-----------------------------------------------------------------[

6E]-----------------------------------------------------------------[

 

 

 

1E]-------------------------------------------------------------------------------------------------------------------------[

2B]---------------------------------------2-----------------------------3----2---------2---3---2---0---2---------[

3G]-------1----2----4----2----4----------4----2----1-------------------------------------------------------------[

4D]---------------------------------------------------------------4--------------------------------------------------------[

5A]--------------------------------------------------------------------------------------------------------------------------[

6E]--------------------------------------------------------------------------------------------------------------------------[

 

 

Solo mais agudo - 8ª acima

 

 

 

 

1E]------9----7----9--------------10----9----10----9----7--------10----9----10--------------------[

2B]---------------------------7-------------------------------------------------------------------------7----9-----[

3G]--------------------------------------------------------------------------------------------------------------------[

4D]--------------------------------------------------------------------------------------------------------------------[

5A]--------------------------------------------------------------------------------------------------------------------[

6E]--------------------------------------------------------------------------------------------------------------------[

 

 

 

 

1E]-----7----5----7----5----4----7----5--------[

2B]------------------------------------------------------[

3G]------------------------------------------------------[

4D]------------------------------------------------------[

5A]------------------------------------------------------[

6E]------------------------------------------------------[

 

 

 

 

1E]------9----7----9------------10----9----10----9----7--------10----9----10--------------------[

2B]--------------------------7-----------------------------------------------------------------------7----9------[

3G]------------------------------------------------------------------------------------------------------------------[

4D]------------------------------------------------------------------------------------------------------------------[

5A]------------------------------------------------------------------------------------------------------------------[

6E]------------------------------------------------------------------------------------------------------------------[

 

 

 

 

1E]---------7----5----7----5----4----7----5--------[

2B]----------------------------------------------------------[

3G]----------------------------------------------------------[

4D]----------------------------------------------------------[

5A]----------------------------------------------------------[

6E]----------------------------------------------------------[

 

 

 

 

1E]------4-----5-----7-----5-----7-----9----7-----5----4-------10----9-------------9----10----9----7----9------[

2B]----------------------------------------------------------------------------------------7-------------------------------------------[

3G]-------------------------------------------------------------------------------------------------------------------------------------[

4D]-------------------------------------------------------------------------------------------------------------------------------------[

5A]-------------------------------------------------------------------------------------------------------------------------------------[

6E]-------------------------------------------------------------------------------------------------------------------------------------[

 

 

 

Please reload

Redes Sociais

  • Wix Facebook page
  • YouTube Social  Icon