SMILE - Charlie Chaplin


Smile - Charlie Chaplin - Sorrir - Tablatura e acordes

Imprimir em PDF

C Em Am

]-----------------------0-----------------------------------------------------------------------------------------------[

]----1------------3-------3-----1-----0---------0-------------1----3----1----0------------------------------[

]-------------------------------------------------2-------------------------------------------2----0----2------------[

]--------------------------------------------------------------------------------------------------------------------------[

]--------------------------------------------------------------------------------------------------------------------------[

]--------------------------------------------------------------------------------------------------------------------------[

Dm A7 Dm

]----------------------------------------------------0--1----------------------------0-----1-----------3----5----3----1----0----------------[

]----0--1-------------------0--1--3----------------------2-------------3--------------------------------------------------------------3-------[

]--------------2----------------------------------------------------------------------------------------------------------------------------------------[

]--------------------------------------------------------------------------------------------------------------------------------------------------------[

]--------------------------------------------------------------------------------------------------------------------------------------------------------[

]--------------------------------------------------------------------------------------------------------------------------------------------------------[

Fm C Dm

]--1--------------------3----4----3----1----0--------0----------------1----0----1----0---------------------------------[

]------------------------------------------------------3--------------------------------------------------3----1----3------------[

]--------------------------------------------------------------------------------------------------------------------------------------[

]--------------------------------------------------------------------------------------------------------------------------------------[

]--------------------------------------------------------------------------------------------------------------------------------------[

]--------------------------------------------------------------------------------------------------------------------------------------[

G7 C

]----------0-----0-------------------[

]-------------------------1-----------[

]----2--------------------------------[

]--------------------------------------[

]--------------------------------------[

]--------------------------------------[

ACORDES

C Em Am Dm A7 Fm G7

--0-- --0-- --0-- --1-- --0-- --1-- --1--

--1-- --0-- --1-- --3-- --2-- --1-- --0--

--0-- --0-- --2-- --2-- --0-- --1-- --0--

--2-- --2-- --2-- --0-- --2-- --3-- --0--

--3-- --2-- --0-- ----- --0-- --3-- --2--

----- --0-- ----- ----- ----- --1-- --3--

Redes Sociais

  • Wix Facebook page
  • YouTube Social  Icon