CLEANIN´OUT MY CLOSET - Eminem


Cleanin´out my closet - Eminem - Tablatura

Guitarra 1

]------------------------------------------------------[

]------------------------------------------------------[

]----------------------------2-----------------------[

]----------------------2----------2-----------------[

]-----0---0---3----------------------3--2-------[

]------------------------------------------------------[

]----------------------------------------------------------------------------------------[

]----------------------------------------------------------------------------------------[

]----------------------------------------------------------1----2----4----1----2--[

]--------------------------3------------------------------------------------------------[

]-------------0----3----------3-----0-----------------------------------------------[

]-1---1---------------------------------------4--------------------------------------[

Guitarra 2

]----------------8------------------------------8-------------7-------[

]---------10----------------10---------------------------------------[

]-----9--------------9-----------------9--------------9--------------[

]--------------------------------------------------------------------------[

]--------------------------------------------------------------------------[

]--------------------------------------------------------------------------[

]---------------8-------------------------10----------[

]---------10--------------10------------------------[

]-----9---------------9-----------9-------------------[

]---------------------------------------------------------[

]---------------------------------------------------------[

]---------------------------------------------------------[

]--8----10----12-------------------------7--------------------------12------17--[

]-----------------------10------------------9---------------------------------------------[

]---------------------------------9------------------------------10-----------------------[

]---------------------------------9--------------------------------9-----------------------[

]---------------------------------------------------------------------------------------------[

]---------------------------------------------------------------------------------------------[

Redes Sociais

  • Wix Facebook page
  • YouTube Social  Icon