I´M YOURS - Com pestana


I´m Your - Jason Mraz - Tom Original

SOLO

1E]-------7/9----7-------7/9----6---------7/9----------------------------------------[

2B]-------7/9----7-------7/9----7---------7/9---------9-----9------9-------------[

3G]----------------------------------------------------------------8-----8------8/9---------[

4D]-----------------------------------------------------------------------------------------------[

5A]-----------------------------------------------------------------------------------------------[

6E]-----------------------------------------------------------------------------------------------[

ACORDES

B F# G#m E

--2-- --2-- --4-- --0--

--4-- --2-- --4-- --0--

--4-- --3-- --4-- --1--

--4-- --4-- --6-- --2--

--2-- --4-- --6-- --2---

----- --2-- --4-- --0---

TODAS AS MÚSICAS

Redes Sociais

  • Wix Facebook page
  • YouTube Social  Icon