I´M YOURS - Sem pestanas


I´m yours - Jason Mraz - Tablatura - Solo - com acordes sem pestana

SOLO

1E]-------8/10----8----------8/10----7---------8/10------------------------------------------------[

2B]-------8/10----8----------8/10----7---------8/10-------10------10-------10--------------[

3G]--------------------------------------------------------------------------9--------9----------9/10--------[

4D]-----------------------------------------------------------------------------------------------------------------[

5A]-----------------------------------------------------------------------------------------------------------------[

6E]-----------------------------------------------------------------------------------------------------------------[

ACORDES

C G Am F7M

--0-- --3-- --0-- --0--

--1-- --0-- --1-- --1--

--0-- --0-- --2-- --2--

--2-- --0-- --2-- --3--

--3-- --2-- --0-- -----

----- --3-- ----- -----

TODAS AS MÚSICAS

Redes Sociais

  • Wix Facebook page
  • YouTube Social  Icon