OVER THE RAINBOW - Além do Arco irís


Somewhere over the rainbow - Além do arco-íris -Tabalatura do solo e acordes

Imprimir em PDF

C Em Dm G7

]-----------8---7--------5--7---8--------------5------------[

]----------------------8------------------------------------8-----[

]-----5-------------------------------------5---------------------[

]--------------------------------------------------------------------[

]--------------------------------------------------------------------[

]--------------------------------------------------------------------[

C Dm G7 C A7 Dm G7 C

]----------------------------------------------------------------------------------[

]----------6----5----------------5----6------------------------------5------[

]------------------------5----7-----------------7--------4-5--7-------5---[

]---7-----------------------------------------------------------------------------[

]----------------------------------------------------------------------------------[

]----------------------------------------------------------------------------------[

C G7 Dm G7 C

]-----------------------------------------------------------------------5----------------------[

]-5--8--5--8--5--8--5--8--6--8--6--8--6--8--6--8------------5---------8-[

]------------------------------------------------------------------------------------------------[

]------------------------------------------------------------------------------------------------[

]------------------------------------------------------------------------------------------------[

]------------------------------------------------------------------------------------------------[

C D7 Dm G7

]----------------------------------------5-----5-----5-----5----7-------8---------10-[

]-5--8--5--8--5--8--5--8--7-----7-----7-----7-----------------------------------[

]------------------------------------------------------------------------------------------------[

]------------------------------------------------------------------------------------------------[

]------------------------------------------------------------------------------------------------[

]------------------------------------------------------------------------------------------------[

TODAS AS MÚSICAS

APRENDA A SOLAR

Redes Sociais

  • Wix Facebook page
  • YouTube Social  Icon