I GOTTA FEELING - The Black Eyed Peas

 

 

I gotta feeling - The Black Eyed Peas - Tablatura

 

 

 

TABLATURA

 

 

Acordes:   

 

G                           C                           Em                        C

.  .  .  . / .  .  .  .  / .  .  .  .  / .  .  .  .  / .  .  .  .  / .  .  .  .  / .  .  .  . / .  .  .  .  /

 

 

 

RIFF REFRÃO

 

 

1E]-------------------------------------------------------------------------------------------------------------[

2B]----3----3----3----3----1----1----0----0----1----1----1----1----1----1----1----1------[

3G]----0----0----0----0----0----0----0----0----0----0----0----0----0----0----0----0------[

4D]------------------------------------------------------------------------------------------------------------[

5A]------------------------------------------------------------------------------------------------------------[

6E]------------------------------------------------------------------------------------------------------------[

 

 

1E]---------------------------------------------------------------------------------------------------------------[

2B]-------0----0----0----0----0----0----0----0----1----1----1----1----1----1----1----1------[

3G]-------0----0----0----0----0----0----0----0----0----0----0----0----0----0----0----0------[

4D]---------------------------------------------------------------------------------------------------------------[

5A]---------------------------------------------------------------------------------------------------------------[

6E]---------------------------------------------------------------------------------------------------------------[

 

 

LINHA DO VERSO

 

 

1E]-----------0-------0-------0-------0-------1----0----1----0----1----0----1------[

2B]-----3-------3-------3-------3--------3-------------------------------------------------[

3G]-----------------------------------------------------------------------------------------------[

4D]-----------------------------------------------------------------------------------------------[

5A]-----------------------------------------------------------------------------------------------[

6E]-----------------------------------------------------------------------------------------------[

 

 

 

1E]-------0----3----0----3----0----3----0----3----0----3----0----3----0----3----0----3-------[

2B]----------------------------------------------------------------------------------------------------------------[

3G]----------------------------------------------------------------------------------------------------------------[

4D]----------------------------------------------------------------------------------------------------------------[

5A]----------------------------------------------------------------------------------------------------------------[

6E]----------------------------------------------------------------------------------------------------------------[

 

 

 

LINHA DE BAIXO

 

 

             G

1E]-----------------------------------------------------------------------------------------------------------[

2B]-----------------------------------------------------------------------------------------------------------[

3G]-----------------------------------------------------------------------------------------------------------[

4D]-----------------------------------------------------------------------------------------------------------[

5A]-----------------------------------------------------------------------------------------------------------[

6E]----3----3----3----3----3----3----3----3----3----3----3----3----3----3----3----3-----[

 

 

             C

1E]---------------------------------------------------------------------------------------------------------------[

2B]---------------------------------------------------------------------------------------------------------------[

3G]---------------------------------------------------------------------------------------------------------------[

4D]---------------------------------------------------------------------------------------------------------------[

5A]----3----3----3----3----3----3----3----3----3----3----3----3----3----3----3----2---------[

6E]----------------------------------------------------------------------------------------------------------------[

 

           Em

1E]---------------------------------------------------------------------------------------------------------------[

2B]---------------------------------------------------------------------------------------------------------------[

3G]---------------------------------------------------------------------------------------------------------------[

4D]---------------------------------------------------------------------------------------------------------------[

5A]---------------------------------------------------------------------------------------------------------------[

6E]-------0----0----0----0----0----0----0----0----0----0----0----0----0----0----0----0------[

 

 

            C

1E]-------------------------------------------------------------------------------------------------------------------[

2B]-------------------------------------------------------------------------------------------------------------------[

3G]-------------------------------------------------------------------------------------------------------------------[

4D]-------------------------------------------------------------------------------------------------------------------[

5A]--------3----3----3----3----3----3----3----3----3----3----3----3----3----3----3----2---------[

6E]--------------------------------------------------------------------------------------------------------------------[

 

 

TODAS AS MÚSICAS

 

 

 

Please reload

Please reload

Redes Sociais

  • Wix Facebook page
  • YouTube Social  Icon