I GOTTA FEELING - The Black Eyed Peas


I gotta feeling - The Black Eyed Peas - Tablatura

TABLATURA

Acordes:

G C Em C

. . . . / . . . . / . . . . / . . . . / . . . . / . . . . / . . . . / . . . . /

RIFF REFRÃO

]------------------------------------------------------------------------------------------------------------[

]----3----3----3----3----1----1----0----0----1----1----1----1----1----1----1----1------[

]----0----0----0----0----0----0----0----0----0----0----0----0----0----0----0----0------[

]------------------------------------------------------------------------------------------------------------[

]------------------------------------------------------------------------------------------------------------[

]------------------------------------------------------------------------------------------------------------[

]------------------------------------------------------------------------------------------------------------[

]----0----0----0----0----0----0----0----0----1----1----1----1----1----1----1----1------[

]----0----0----0----0----0----0----0----0----0----0----0----0----0----0----0----0------[

]------------------------------------------------------------------------------------------------------------[

]------------------------------------------------------------------------------------------------------------[

]------------------------------------------------------------------------------------------------------------[

LINHA DO VERSO

]-----------0-------0-------0-------0-------1----0----1----0----1----0----1------[

]-----3-------3-------3-------3--------3-------------------------------------------------[

]-----------------------------------------------------------------------------------------------[

]-----------------------------------------------------------------------------------------------[

]-----------------------------------------------------------------------------------------------[

]-----------------------------------------------------------------------------------------------[

]---0----3----0----3----0----3----0----3----0----3----0----3----0----3----0----3----[

]---------------------------------------------------------------------------------------------------------[

]---------------------------------------------------------------------------------------------------------[

]---------------------------------------------------------------------------------------------------------[

]---------------------------------------------------------------------------------------------------------[

]---------------------------------------------------------------------------------------------------------[

LINHA DE BAIXO

G

]-----------------------------------------------------------------------------------------------------------[

]-----------------------------------------------------------------------------------------------------------[

]-----------------------------------------------------------------------------------------------------------[

]-----------------------------------------------------------------------------------------------------------[

]-----------------------------------------------------------------------------------------------------------[

]----3----3----3----3----3----3----3----3----3----3----3----3----3----3----3----3-----[

C

]---------------------------------------------------------------------------------------------------------[

]---------------------------------------------------------------------------------------------------------[

]---------------------------------------------------------------------------------------------------------[

]---------------------------------------------------------------------------------------------------------[

]----3----3----3----3----3----3----3----3----3----3----3----3----3----3----3----2---[

]---------------------------------------------------------------------------------------------------------[

Em

]--------------------------------------------------------------------------------------------------------[

]---------------------------------------------------------------------------------------------------------[

]---------------------------------------------------------------------------------------------------------[

]---------------------------------------------------------------------------------------------------------[

]---------------------------------------------------------------------------------------------------------[

]----0----0----0----0----0----0----0----0----0----0----0----0----0----0----0----0---[

C

]----------------------------------------------------------------------------------------------------------[

]----------------------------------------------------------------------------------------------------------[

]-----------------------------------------------------------------------------------------------------------[

]-----------------------------------------------------------------------------------------------------------[

]----3----3----3----3----3----3----3----3----3----3----3----3----3----3----3----2-----[

]-----------------------------------------------------------------------------------------------------------[

TODAS AS MÚSICAS

Redes Sociais

  • Wix Facebook page
  • YouTube Social  Icon