BOI DA CARA PRETA

Boi da cara preta - Cifra - Tablatura - código - Solo e acordes

Aprenda a tocar a melodia da música fácil para iniciante no violão: Boi da Cara preta.

CÓDIGO

DÓ DÓ DÓ

21 21 21

FÁ MI RÉ DÓ RÉ RÉ

11 10 23 21 23 23

SI SI SI DÓ RÉ RÉ

20 20 20 21 23 23

RÉ FÁ MI RÉ DÓ SI DÓ DÓ

23 11 10 23 21 20 21 21

_________________________________

TABLATURA

]-----------------------------------1-----0----------------------------------------[

]--------------1-----1-----1-------------------3-----1------3------3--------[

]-------------------------------------------------------------------------------------[

]-------------------------------------------------------------------------------------[

]-------------------------------------------------------------------------------------[

]-------------------------------------------------------------------------------------[

]----------------------------------------------------1-----------------------------------------[

]-0-----0-----0-----1-----3-----3-----3---------0-----3----1-----0-----1----1--[

]------------------------------------------------------------------------------------------------[

]------------------------------------------------------------------------------------------------[

]------------------------------------------------------------------------------------------------[

]------------------------------------------------------------------------------------------------[

____________________________________

CIFRA

C

Boi, boi, boi

G

Boi da cara preta

C

pega essa criança que tem medo de careta

ACORDES

C G

--0-- --3--

--1-- --0--

--0-- --0--

--2-- --0--

--3-- --2--

----- --3--

TODAS AS MÚSICAS

Músicas fáceis

Solos

Músicas de filmes

Músicas de Rock

Redes Sociais

  • Wix Facebook page
  • YouTube Social  Icon