top of page
Buscar

HINO DO BRASIL

Veja o solo no violão do Hino do Brasil, o hino Nacional Brasileiro tocado em um arranjo de dois violões com a tablatura e cifra da melodia e da harmonia (acordes).

TABLATURA ORIGINAL

TABLATURA COM INTRODUÇÃO SIMPLIFICADA

Hino Nacional Brasileiro - Tablatura do solo - Violão


OBS: A introdução está escrita nos PDFs acima


F

Ouviram do Ipiranga as margens plácidas

|--------------------------------5----------5---6---7----8-----------|

|---------6---5--6----8-----------8---------------------------6-----|

|----5---------------------------------------------------------------------|

|---------------------------------------------------------------------------|

|---------------------------------------------------------------------------|

|---------------------------------------------------------------------------|


C7

De um povo heroico o brado retumbante

|--------------------------------5-------------6----5--------------------|

|---------6---5--8----6------------8-------------------7----8-------|

|----5-----------------------------------------------------------------------|

|-----------------------------------------------------------------------------|

|-----------------------------------------------------------------------------|

|-----------------------------------------------------------------------------|


E o sol da liberdade em raios fúlgidos

|---------------------------5---6----5--6---8---9---10-------------|

|---------8---7--8-----------------------------------------------8------|

|----5----------------------------------------------------------------------|

|-----------------------------------------------------------------------------|

|-----------------------------------------------------------------------------|

|----------------------------------------------------------------------------|


F

Brilhou no céu da pátria nesse instante

|------------------------5---------6-----5---8----6-----4-----5------|

|-----------8-----6----------8--------------------------------------------|

|----5-----------------------------------------------------------------------|

|-----------------------------------------------------------------------------|

|-----------------------------------------------------------------------------|

|-----------------------------------------------------------------------------|


A7 Dm

Se o penhor dessa igualdade

|----5---5----6----5----------5---6----5----5-------10-------|

|--------------------------------------------------------------------------|

|--------------------------------------------------------------------------|

|--------------------------------------------------------------------------|

|--------------------------------------------------------------------------|

|--------------------------------------------------------------------------|


A7 Dm Conseguimos conquistar com braço forte

|----8----6----6---5---5----8----8----6----6----5----5---------|

|------------------------------------------------------------------------7---|

|-----------------------------------------------------------------------------|

|-----------------------------------------------------------------------------|

|-----------------------------------------------------------------------------|

|-----------------------------------------------------------------------------|


G7 C Em teu seio, ó liberdade

|---------------5-------------------5-----------------8----------------|

|--8----8----------8--------8---------8----8----------------------|

|-------------------------------------------------------------------------|

|--------------------------------------------------------------------------|

|--------------------------------------------------------------------------|

|--------------------------------------------------------------------------|


G7 C Desafia o nosso peito a própria morte!

|---7---5----5----------------------------------------------------------------|

|----------------------8-----8----6----6-----5----5-----------------------|

|---------------------------------------------------------------7----7----5---|

|---------------------------------------------------------------------------------|

|---------------------------------------------------------------------------------|

|---------------------------------------------------------------------------------|


G7 C Desafia o nosso peito a própria morte!

|---7---5----5----------------------------------------------------------------|

|----------------------8-----8----6----6-----5----5-----------------------|

|---------------------------------------------------------------7----7----5---|

|---------------------------------------------------------------------------------|

|---------------------------------------------------------------------------------|

|---------------------------------------------------------------------------------|


C7

Ó Pátria amada, idolatrada, Salve! Salve!

|------------------------6--------------------------6---------------------6---6----|

|---------5-----8--------------------5----8----------------5----8---------------|

|---5----------------------------5-----------------------5--------------------------|

|---------------------------------------------------------------------------------------|

|----------------------------------------------------------------------------------------|

|----------------------------------------------------------------------------------------|


F

Brasil, um sonho intenso, um raio vívido

|--------------------------------5----------5---6---7----8-----------|

|---------6---5--6----8-----------8---------------------------6-----|

|----5---------------------------------------------------------------------|

|---------------------------------------------------------------------------|

|---------------------------------------------------------------------------|

|---------------------------------------------------------------------------|


C7 De amor e de esperança à terra desce

|--------------------------------5-------------6----5--------------------|

|---------6---5--8----6------------8-------------------7----8-------|

|----5-----------------------------------------------------------------------|

|-----------------------------------------------------------------------------|

|-----------------------------------------------------------------------------|

|-----------------------------------------------------------------------------|



Se em teu formoso céu, risonho e límpido

|---------------------------5---6----5--6---8---9---10-------------|

|---------8---7--8-----------------------------------------------8------|

|----5----------------------------------------------------------------------|

|-----------------------------------------------------------------------------|

|-----------------------------------------------------------------------------|

|----------------------------------------------------------------------------|


F A imagem do Cruzeiro resplandece

|------------------------5---------6-----5---8----6-----4-----5------|

|-----------8-----6----------8--------------------------------------------|

|----5-----------------------------------------------------------------------|

|-----------------------------------------------------------------------------|

|-----------------------------------------------------------------------------|

|-----------------------------------------------------------------------------|


Bb

Gigante pela própria natureza

|-------------------------------------------------------------------6----6---|

|---6----8----6----5---6----5----6----8----6----6-----------------|

|-------------------------------------------------------------------------------|

|-------------------------------------------------------------------------------|

|-------------------------------------------------------------------------------|

|-------------------------------------------------------------------------------|


G7 C És belo, és forte, impávido colosso

|---------5-------------------------------------5----------------8----8---|

|----8----------8----7----8----7-----8---------8-----8---------------|

|-------------------------------------------------------------------------------|

|-------------------------------------------------------------------------------|

|-------------------------------------------------------------------------------|

|-------------------------------------------------------------------------------|


A7 Dm E o teu futuro espelha essa grandeza

|----5----6----5----4----5-----4-----5----6-----5----5----10----|

|-------------------------------------------------------------------------------|

|-------------------------------------------------------------------------------|

|-------------------------------------------------------------------------------|

|-------------------------------------------------------------------------------|

|-------------------------------------------------------------------------------|


Bb F

Terra adorada

|-----8------6--------------------------------------------------------------|

|-----------------------8-----8-----6--------------------------------------|

|-------------------------------------------------------------------------------|

|-------------------------------------------------------------------------------|

|-------------------------------------------------------------------------------|

|-------------------------------------------------------------------------------|


Bb F

Entre outras mil és tu, Brasil, Ó Pátria amada!

|--------------------6----5---------------------------6------------------------|

|----5---6---8---------------5---6------------------------8----8----6---|

|--------------------------------------------6----7-----------------------------|

|----------------------------------------------------------------------------------|

|----------------------------------------------------------------------------------|

|----------------------------------------------------------------------------------|


Bb F Dos filhos deste solo és mãe gentil

|---------5---6----7----8----5------------------6-----5--------------|

|----8----------------------------------6-----------------------------------|

|------------------------------------------------7---------------------------|

|------------------------------------------------------------------------------|

|------------------------------------------------------------------------------|

|------------------------------------------------------------------------------|


C F Pátria amada Brasil!

|--------------------------------------------------|

|------6--------------------------5-----6------|

|-------------7-----5------7-------------------|

|--------------------------------------------------|

|--------------------------------------------------|

|---------------------------------------------------|




Cifra - Hino do Brasil - Violão

Tom: F

F | F | C | Gm | Gm | C7 | F | F | Bb Gm | C Am | Dm Bb C7 | F Fº | F C | F |

F

Ouviram do Ipiranga as margens plácidas

C7 De um povo heroico o brado retumbante

E o sol da liberdade em raios fúlgidos

F Brilhou no céu da pátria nesse instante

A7 Dm

Se o penhor dessa igualdade

A7 Dm Conseguimos conquistar com braço forte

G7 C Em teu seio, ó liberdade

G7 C Desafia o nosso peito a própria morte!

C7

Ó Pátria amada, idolatrada, Salve! Salve!

F

Brasil, um sonho intenso, um raio vívido

C7 De amor e de esperança à terra desce

Se em teu formoso céu, risonho e límpido

F A imagem do Cruzeiro resplandece

Bb

Gigante pela própria natureza

G7 C És belo, és forte, impávido colosso

A7 Dm E o teu futuro espelha essa grandeza



Bb F

Terra adorada

Entre outras mil

Bb És tu, Brasil

F Ó Pátria amada!

Bb F Dos filhos deste solo és mãe gentil

C F Pátria amada Brasil!

II

F

Deitado eternamente em berço esplêndido

C7 Ao som do mar e à luz do céu profundo

Fulguras, ó Brasil, florão da América

F Iluminado ao sol do Novo Mundo!

A7 Dm

Do que a terra, mais garrida

A7 Dm Teus risonhos, lindos campos têm mais flores

G7 C Nossos bosques têm mais vida

G7 C Nossa vida no teu seio mais amores

C7

Ó Pátria amada, idolatrada, Salve! Salve!

F

Brasil, de amor eterno seja símbolo

C7 O lábaro que ostentas estrelado

E diga o verde-louro dessa flâmula

F Paz no futuro e glória no passado

Bb

Mas, se ergues da justiça a clava forte

G7 C Verás que um filho teu não foge à luta

A7 Dm Nem teme, quem te adora, a própria morte

Bb F

Terra adorada

Entre outras mil

Bb És tu, Brasil

F Ó Pátria amada!

Bb F Dos filhos deste solo és mãe gentil

C F Pátria amada Brasil!

Acorde do hino do Brasil - Cifra para violão

bottom of page