CÉU AZUL - Charlie Brown Jr.


TABLATURA / CIFRA - IMPRIMIR

]--------2-------------2---------------------2-----------------------2--------2----[

]--------3-------------3---------------------3-----------------------3--------3----[

]-----------------------------------------------------------------------------------------[

]----------------------------------------0---------------0-------0--------------------[

]-----------------------------------------------------------------------------------------[

]-0-------------0-------------0-------------------------------------------------------[

]----------------------------------------------------------------------------------------------------[

]--------------------3-------------3-------------------2------------------2h3p2-----------[

]--------------------2-------------2-------------------2------------------2-----------2-------[

]------------------------------------------------------------------------------------------------2--[

]---------2-----------------2-------------------0------------0-----0--------------------------[

]-0--------------------------------------0--------------------------------------------------------[

Em D

Tão natural quanto a luz do dia

Bm11 A9

Mas que preguiça boa me deixa aqui a toa

Em D

Hoje ninguém vai estragar meu dia

Bm11 A9

Só vou gastar energia pra beijar sua boca

Em D

___ Fica comigo então__

Bm11 A9

não me abandona não __ __

Em D

Alguém te perguntou como é que foi seu dia

Bm11 A9

Uma palavra amiga, uma nocia boa

Em D

Isso faz falta no dia a dia

Bm11 A9

A gente nunca sabe quem são essas pessoas

Pré-Refrão:

Em Bm11

___ Eu só queria te lembrar

A9

Que aquele tempo eu não podia fazer mais por nós

G

Eu estava errado e você não tem que me perdoar

Em Bm11

___ Mas também quero te mostrar

A9

Que existe um lado bom nessa história

G

Tudo que ainda temos a compartilhar


Refrão:

Em D

E viver, e cantar

Bm11 A9

Não importa qual seja o dia

Em D

Vamos viver, vadiar

Bm11 A9

O que importa é nossa alegria

Em D

Vamos viver, e cantar

Bm11 A9

Não importa qual seja o dia

Em D Bm11 A9 G

--0-- --2-- --0-- --0-- --3--

--0-- --3-- --3-- --0-- --0--

--0-- --2-- --4-- --2-- --0--

--2-- --0-- --4-- --2-- --0--

--2-- ----- --2-- --0-- --2--

--0-- ----- ----- ------ ---3--

Redes Sociais

  • Wix Facebook page
  • YouTube Social  Icon