Hino do Corinthians

 

 

TABLATURA E CIFRA - IMPRIMIR

 

Aprenda a tocar o Hino do Corinthians no violão, melodia (solo) e harmonia (acordes) na vídeo tablatura e com cifra da música.

 

 

Cifra do Hino do Corinthians

 

Intro: Am  Em  B7  Em

 

 

                Em

Salve o Corinthians

                                      B7

O campeão dos campeões

                                                            Em                  E

Eternamente dentro dos nossos corações

                 Am

Salve o Corinthians

                                    Em

De tradições e glórias mil

                B7                                            Em

Tu és o orgulho dos esportistas do Brasil

 

 

                                       B7

Teu passado é uma bandeira

                                Em

Teu presente uma lição

                                B7

Figuras entre os primeiros

                                  Em              E

Do nosso esporte bretão

                    Am

Corinthians grande

                   Em

Sempre altaneiro

                B7                            Em

És do Brasil o clube mais brasileiro

 

 

                Em

Salve o Corinthians

                                       B7

O campeão dos campeões

                                                            Em

Eternamente dentro dos nossos corações

                  Am

Salve o Corinthians

                                   Em

De tradições e glórias mil

                B7                                        Em  

Tu és o orgulho dos esportistas do Brasil

 

 

 

 Em    B7      Am      E

 

--0--    --2--    --0--    --0--  

--0--    --0--    --1--    --0--

--0--    --2--    --2--    --1--

--2--    --1--    --2--    --2--

--2--    --2--    --0--    --2--

--0--    -----     -----    --0--

 

 

 

Tablatura do Hino do Corinthians no violão

 

 

]--7---------------------------------------------7---8---12---8--------------[

]-------10---9---10---------10---10------------------------------10---8--[

]--------------------------------------------------------------------------------[

]--------------------------------------------------------------------------------[

]--------------------------------------------------------------------------------[

]--------------------------------------------------------------------------------[

 

 

]--12---7--------------------------------------7----12----11---14---12--[

]--------------8----7---------7---8---10------------------------------------[

]-------------------------------------------------------------------------------[

]-------------------------------------------------------------------------------[

]-------------------------------------------------------------------------------[

]-------------------------------------------------------------------------------[

 

 

 

]--8---7-------------------------------------------------7--------------------[

]-------------8-------------------------------7----8----------10---8--7----[

]-------------------9---9--------9---9---------------------------------------[

]-------------------------------------------------------------------------------[

]-------------------------------------------------------------------------------[

]-------------------------------------------------------------------------------[

 

 

 

]----------------------------------------------------------------------------7----[

]--10---7----------------------------------------7----10----8----7-----------[

]--------------9---8---8---------8---8---9------------------------------------[

]---------------------------------------------------------------------------------[

]---------------------------------------------------------------------------------[

]---------------------------------------------------------------------------------[

 

 

 

]---7---------------------------------------------------7----8----12----8------------------[

]----------10----9----10------------10----10--------------------------------10-----8---[

]----------------------------------------------------------------------------------------------[

]----------------------------------------------------------------------------------------------[

]----------------------------------------------------------------------------------------------[

]----------------------------------------------------------------------------------------------[

 

 

 

]--12----7----------------------------------------7---8---7----------------------------[

]------------------8---7----7-------------10---------------------10----7----8----9--[

]------------------------------------------------------------------------------------------[

]------------------------------------------------------------------------------------------[

]------------------------------------------------------------------------------------------[

]------------------------------------------------------------------------------------------[

 

 

 

]-----------------------------------------------------8---7------------------------7--[

]-------------------7---8---10---10------10-----------------10---8---10--------[

]--9--9--9--9------------------------------------------------------------------------[

]---------------------------------------------------------------------------------------[

]---------------------------------------------------------------------------------------[

]---------------------------------------------------------------------------------------[

 

 

 

]--7-----------------------------------------------------------------[

]-------10----9----10----10-----------10----8----7----8---8--[

]---------------------------------------------------------------------[

]---------------------------------------------------------------------[

]---------------------------------------------------------------------[

]---------------------------------------------------------------------[

 

 

 

]--12----7----------------------------------------7---------------------------[

]----------------8---7---7--------7---8---10-----------10---8----7-------[

]----------------------------------------------------------------------------9--[

]--------------------------------------------------------------------------------[

]--------------------------------------------------------------------------------[

]--------------------------------------------------------------------------------[

 

 

TODAS AS MÚSICAS

 

 

Você pode aprender a dominar o solo no violão, criar melodias, aprender escalas e muito mais, comece agora, saiba como aqui

Please reload

Please reload

Redes Sociais

  • Wix Facebook page
  • YouTube Social  Icon