MORTAL KOMBAT

 

Mortal Kombat Tema Solo no Violão

 

Veja como tocar o solo da música do Mortal Kombat no violão. Veja o vídeo tablatura e acompanhe com a tab para violão ou guitarra abaixo.

 

 

 

RIFF 1

 

-------------------------------------0--------------------------0---------3---------0-------[

--------------1---------3---------------3-------1-----1---------1---------1---------1--[

--2----2---------2---------2-----------------------------------------------------------------[

--------------------------------------------------------------------------------------------------[

--------------------------------------------------------------------------------------------------[

--------------------------------------------------------------------------------------------------[

 

 

-------------------------------------------------------------------------------------------------[

-------------0--------1---------3-----1-----------------------------1----------1-----0--[

-0----0--------0--------0------------------------------2-----------------------------------[

------------------------------------------------3-----3----------3----------3----------------[

--------------------------------------------------------------------------------------------------[

--------------------------------------------------------------------------------------------------[

 

 

 

RIFF 2

 

1E]--5----5----5----5-----------8------------5----5----5----5-------------------[

2B]---------------------------8----------------------------------------------8-------5--[

3G]-----------------------------------------------------------------------------------------[

4D]-----------------------------------------------------------------------------------------[

5A]-----------------------------------------------------------------------------------------[

6E]-----------------------------------------------------------------------------------------[

 

 

1E]------5---5---5---5----------8----------5---5---5-------5--5--5--5--[

2B]-----------------------------8------------------------------------------------------[

3G]-------------------------------------------------------------------------------------[

4D]-------------------------------------------------------------------------------------[

5A]-------------------------------------------------------------------------------------[

6E]-------------------------------------------------------------------------------------[

 

 

 

 

 

RIFF 3

 

]---------12------------8--------------------------------8------------------------[

]--10----------10------------10----11----10-----------10h11----8--[

]---------------------------------------------------------------------------------------[

]---------------------------------------------------------------------------------------[        

]---------------------------------------------------------------------------------------[

]--------------------------------------------------------------------------------------[       3x

 

 

1E]---------------12------------8------------------------------------------[

2B]------10-----------10------------------8-----8-----8------10----[

3G]----------------------------------------------------------------------------[

4D]----------------------------------------------------------------------------[

5A]----------------------------------------------------------------------------[

6E]----------------------------------------------------------------------------[

 

 

 

 

]--------------12------------8--------------------------------8-------------------------[

]------10-----------10------------10----11----10----------10h11----8---[

]--------------------------------------------------------------------------------------------[

]--------------------------------------------------------------------------------------------[        

]--------------------------------------------------------------------------------------------[

]--------------------------------------------------------------------------------------------[       2x

 

 

]----------12-------------8---------------------------------8------------------------[

]-10------------10-----------10------11------10------------------------------[

]------------------------------------------------------------------------------------------[

]------------------------------------------------------------------------------------------[

]------------------------------------------------------------------------------------------[

]---------------------------------------------------------------------5---5---5---5--[

 

 

 

 

RIFF 4

 

 

1E]-------5------5-------0-----------------------6-------5---[

2B]-------------------------------3--------------------------------[        

3G]-----------------------------------------------------------------[

4D]-----------------------------------------------------------------[

5A]-----------------------------------------------------------------[        

6E]-----------------------------------------------------------------[

 

 

 

 

 

Você pode aprender a dominar o solo no violão, criar melodias, aprender escalas e muito mais, comece agora, saiba como aqui

Please reload

Redes Sociais

  • Wix Facebook page
  • YouTube Social  Icon