AXEL F


IMPRIMIR TAB EM PDF

Veja aqui um grande clássico da trilha sonora, Axel F, a música do filme "Um tira da pesada", com Eddie Murphy, que também ficou famosa com seu remix na animação Crazy Frogs.

Axel F é uma canção de Harold Faltermeyer de 1985.

PARTE 1

]-0----3----0---0----5----0-----------0----7-----0-----0------8------7--------[

]---------------------------------------3-----------------------------------------------8---[

]----------------------------------------------------------------------------------------------[

]----------------------------------------------------------------------------------------------[

]----------------------------------------------------------------------------------------------[

]----------------------------------------------------------------------------------------------[

]-----------0-----7-----12----0-------------------------------------2-------0----------[

]-------------------------------------------3-----------0-----0------------------------------[

]------------------------------------------------------------------------------------------------[

]------------------------------------------------------------------------------------------------[

]------------------------------------------------------------------------------------------------[

]------------------------------------------------------------------------------------------------[

PARTE 2

]-7----7----7---10---10---10----9----9-------7---7---7---10--10--9---7--[

]---------------------------------------------------------------------------------------------------[

]---------------------------------------------------------------------------------------------------[

]---------------------------------------------------------------------------------------------------[

]---------------------------------------------------------------------------------------------------[

]---------------------------------------------------------------------------------------------------[

]-----------------------------------------------------7----7-----7------------7----7---[

]-8---8----8----8----10----10---10-------------------------10-----------------[

]----------------------------------------------------------------------------------------------[

]---------------------------------------------------------------------------------------------[

]---------------------------------------------------------------------------------------------[

]---------------------------------------------------------------------------------------------[

BAIXO

]-------------------------------------------------------------------------------------------------[

]-------------------------------------------------------------------------------------------------[

]-------------------------------------------------------------------------------------------------[

]---------2-----0------------------0----2-------------2---------------------0-------2---[

]-----------------------2----2----------------------------------0-----2---------------------[

]-0----------------------------------------------0---------------------------------------------[

]---------------------------------------------------------------------------------------------------[

]---------------------------------------------------------------------------------------------------[

]---------------------------------------------------------------------------------------------------[

]----------------0------0-----------------0-------2-------2--------0------------------------[

]--3----3-----------------------2---------------------------------------------2------0-------[

]-----------------------------------------------------------------------------------------------3--[

Axel F é uma canção de Harold Faltermeyer

TODAS AS MÚSICAS

Músicas fáceis

Músicas de filmes

Solos

Músicas de Rock

Redes Sociais

  • Wix Facebook page
  • YouTube Social  Icon